Oops, an error
Loading. Please wait.

Liebestraum tab

version 2
version 2

Whole song

Interactive

8,623 views 24 this week
no commentswrite comment
1 2 3 4 5
1 last vote to show rating
add to favorites
×
Save as Personal and add changes to this tab that will be seen only by you. Learn more ›
×
You can save this tab as Personal to edit and correct it or add notes. All changes will be seen only by you. Learn more »
launch autoscroll
font size
0
reset
how to read this tab
guitar tuner
edit
Autoscroll
slow
fast
+/-
esc
set tempo
stop
Author
 Liebestraume                                   


                                                                     Franz Liszt
Untitled



     W                Q    Q       E  E  E  E  E  E  E  E  E  E  E  E   
E||-----------------------------|--------------------------------------|
B||-----------------------------|-----------2-----------------2--------|
G||-----------------------------|--------2-----2-----------2-----2-----|
D||-----------------------------|-----2-----------2-----2-----------2--|
A||-----------------------------|--4-----------------4-----------------|
E||------------------------0----|--------------------------------------|


  E  E  E  E  E  E  E  E  E  E  E  E     E  E  E  E  E  E  E  E  E  E  E  E   
--------------------------------------|--------------------------------------|
-----------2-----------------2--------|-----------2--------------------------|
--------4-----4-----------4--------4--|--------3--------3--------3--------3--|
-----3-----------3-----3--------------|-----2-----------------2-----2--------|
--4-----------------------L-----4-----|--4-----------4-----5-----------4-----|
--------------------4-----------------|--------------------------------------|


  E  E  E  E  E  E  E  E  E  E  E  E     Q    E  E  Q    E  E  E  E  E  E   
--------------------------------------|------------------------------------|
-----------0-----------------0--------|----------0----------------0-----0--|
--------2-----2-----------2--------2--|------------------------1-----------|
-----1-----------1-----1--------------|---------------------2--------------|
--4-----------------------------------|-------------0----4-----------2-----|
--------------------2-----------2-----|--2----4----------------------------|


  E  E  E  E  E  E  E  E  E  E  E  E     E  E  E  E  E  E  E  E  E  E  E  E   
-----------0-----------------0--------|--------------------------------------|
--------2-----2-----------2--------2--|-----------2-----------------2--------|
-----2-----------2-----2--------------|--------2-----2-----------2-----2-----|
--------------------2-----------------|-----2-----------2-----2-----------2--|
--0-----------------------L-----------|--4-----------------4-----------------|
--------------------------------0-----|--------------------------------------|


  E  E  E  E  E  E  E  E  E  E  E  E     E  E  E  E  E  E  E  E  E  E  E  E   
--------------------------------------|--------------------------------------|
-----------2-----------------2--------|-----------2--------------------------|
--------4-----4-----------4--------4--|--------3--------3--------3--------3--|
-----3-----------3-----3--------------|-----2-----------------2-----2--------|
--4-----------------------L-----4-----|--4-----------4-----5-----------4-----|
--------------------4-----------------|--------------------------------------|


  E  E  E  E  E  E  E  E  E  E  E  E     Q    E  E  Q    E  E  E  E  E  E   
-----------2-----------------2--------|------------------------------------|
--------4-----4-----------4-----------|----------0----------------0-----0--|
-----2-----------2-----2-----------2--|------------------------1-----------|
--4-----------------------------------|---------------------2--------------|
--------------------2-----------------|-------------0----4-----------2-----|
--------------------------------2-----|--2----4----------------------------|


  E  E  E  E  E  E  E  E  E  E  E  E     E  E  E  E  E  E  E  E  E  E  E  E   
-----------0-----------------0--------|-----------1-----------------1--------|
--------2-----2-----------2-----2-----|--------3-----3-----------3-----3-----|
-----2-----------2-----2--------------|-----2-----------------2--------------|
--------------------2-----------------|--------------------------------------|
--0-----------------------L--------0--|--0-----------L-----0-----------L--2--|
--------------------------------------|-----------------4--------------------|


  E  E  E  E  E  E  E  E  E  E  E  E     E  E  E  E  E  E  E  E  E  E  E  E   
--------------------------------------|-----------2-----------------2--------|
-----------2-----------------2--------|--------2-----2-----------2-----2-----|
--------2-----2-----------2-----2-----|-----2-----------------2--------------|
-----2-----------2-----2--------------|-----------------------------------1--|
--4--------------------------------4--|--4-----------L--3--4-----------L-----|
--------------------0-----------L-----|--------------------------------------|


  E  E  E  E  E  E  E  E  E  E  E  E     E  E  E  E  E  E  E  E  E  E  E  E   
-----------1-----------------1--------|-----------1-----------------1--------|
--------2-----2-----------2-----2-----|--------2-----2-----------2-----2-----|
-----1-----------1-----1-----------1--|-----3-----------3-----3-----------3--|
--3-----------------3-----------------|--3-----------------3-----------------|
--------------------------------------|--------------------------------------|
--------------------------------------|--------------------------------------|


  E  E  E  E  E  E  E  E  E  E  E  E     E  E  E  E  E  E  E  E  E  E  E  E   
-----------1-----------------1--------|-----------1-----------------1--------|
--------1-----1-----------1-----1-----|--------3-----3-----------3-----------|
-----2-----------2-----2-----------2--|-----2-----------2-----2-----------2--|
--3-----------------------------------|--0-----------------0-----------------|
--------------------3-----------------|--------------------------------0-----|
--------------------------------------|--------------------------------------|


  E  E  E  E  E  E  E  E  E  E  E  E     E  E  E  E  E  E  E  E  E  E  E  E   
-----------0-----------------1-----1--|-----------------0-----------1-----1--|
--------0-----0-----------3-----------|-----------0--------------3-----------|
-----1-----------1-----2--------------|-----1-----------------2--------------|
--------------------0-----------------|--------------------0-----------------|
--2-----------------------------3-----|--2-----0-----2-----------------3-----|
--------------------------------------|--------------------------------------|


                                         >    >    >    >    >    >     
  E  E  E  E  E  E  E  E  E  E  E  E     Q    Q    Q    Q    Q    Q     
-----------------0--------------------|--------------------------------|
-----------0-----------------0--------|--------------------------------|
-----1-----------------2-----------2--|--------------------------------|
--------------------3-----------------|--3----2----0-------------------|
--2-----0-----2-----------0-----2-----|-----------------3----2----0----|
--------------------------------------|--------------------------------|


  >                                     
                     |--3--|  |--3--|   
  H.           E  E  E  E  E  E  E  E   
---------------------------------1--0--|
---------------------------0--3--------|
------------------------1--------------|
---------------------0-----------------|
------------------2--------------------|
--4------------0-----------------------|


  S S S S S S S S S S  S S  S  S  S  S  S  S  S  S  S  S  S S  S S S S S S S S S
-------------------------0----------------------------------0----0--------------
------------------3-0------------15----18-17-15--------------------3-0----------
--------------2-1-----10---14-------16----------16-14---------10-------2-1-2-1--
----------3-2-----------------18----------------------18-15--------------------3
------5-2-----------------------------------------------------------------------
--5-4---------------------------------------------------------------------------


                          |--3--|  |--3--|  |--3--|                     
  S S S S S S S S S S S S E  E  E  E  E  E  E  E  E  E  E  E  E  E  E   
-----------------------------------------------------------------------|
-----------------------------------------------------------------------|
-----------------------------------------------------------------------|
-----------------------------------------------------------------------|
--5-2-0---5-2-0---5-2-0---5--2--0-----5--2--0-----5--2--0-----5--2--0--|
--------4-------4-------4----------4-----------4-----------4-----------|


  W.                Q       E  E  E  E  E  E  E  E  E  E  E  E   
-------------------------|--0-----------------0-----------------|
--------------------4----|-----------1-----------------1--------|
-------------------------|--------0-----0-----------0-----0-----|
-------------------------|-----2-----------2-----2-----------2--|
-------------------------|--3-----------------------------------|
--4~---------------------|--------------------------------------|


  E  E  E  E  E  E  E  E  E  E  E  E     E  E  E  E  E  E  E  E  E  E  E  E   
--0-----------------------L-----0-----|--0-----------0-----1-----------0-----|
-----------3-----------------3--------|-----------3-----------------2--------|
--------1-----1-----------1-----------|--------0-----------------0-----------|
-----2-----------2-----2-----------2--|-----2-----------2-----2-----------2--|
--2-----------------------------------|--1-----------------0-----------------|
--------------------------------------|--------------------------------------|


  E  E  E  E  E  E  E  E  E  E  E  E     Q    Q    E  E  E  E  E  E  E  E   
--0-----------------------------------|------------------0-----------------|
-----------5--------------------------|-------0----1--------------0--3-----|
--------5-----5-----2-----------2-----|--2---------------------0-----------|
-----4-----------4--------0-----------|---------------0-----3-----------3--|
--5--------------------3-----3-----3--|------------------------------------|
--------------------2-----------------|--3---------L-----------------------|


  >    >    >    >                                                        
  Q    Q    Q    Q    E  E  E  E     E  E  E  E  E  E  E  E  E  E  E  E   
----------------------------------|--0-----------------0-----------------|
--3----1--------------------------|-----------1-----------------3--------|
------------2----0----------L--0--|--------0-----0-----------1-----1-----|
----------------------------------|-----2-----------2-----2-----------2--|
-------------------------3--0-----|--3-----------------2-----------------|
-------------------------------3--|--------------------------------------|


  E  E  E  E  E  E  E  E  E  E  E  E     E  E  E  E  E  E  E  E  E  E  E  E   
--0-----------------------L-----0-----|--0-----------------0-----------------|
-----------2-----------------2--------|--------------6-----------------6-----|
--------0-----0-----------0-----------|-----------6-----------------6--------|
-----2-----------2-----2-----------2--|--------6-----------------6-----------|
--1-----------------0-----------------|-----4-----------4-----4-----------4--|
--------------------------------------|--4-----------------------------------|


                                      >    >    >    >        >     
  E  E  E  E  E  E  Q    Q    Q       Q    Q    Q    H        Q     
--2----------------------L---------|-------------------------------|
-----------2-----------------------|-----------------6--------4----|
--------3-----3---------------3----|--3----5----6------------------|
-----4-----------4-----------------|-----------------3-------------|
------------------------------1----|--1----3----4-------------6----|
--4--------------------------------|-------------------------------|


  ^                               >     ^              >               
  Q    E  E  E  E  E  E  E  E  E  E     H        E  E  H        E  E   
-------------------------------------|--------------------------------|
--2----2-----------------------2--2--|--2--------L-----2--------L--4--|
--1----------1-----------1-----------|--2--------L--5--2--------L-----|
----------3--------3--------3--------|--4--------L-----4--------L-----|
--4-------------4-----4-----------4--|--4--------L-----4--------L-----|
-------------------------------------|--2--------L--------------------|


  ^                                   ^              >               
  H        E  E  E  E  E  E  E  E     H        E  E  H        E  E   
-----------------------------------|--------------------------------|
--6--------L--------6-----------6--|--6--------L-----6--------L--8--|
-----------------6--------6--------|--6--------L--9--6--------L-----|
--6--------L-----6-----6-----------|--8--------L-----8--------L-----|
--4--------L--4--4-----------4--8--|--8--------L-----8--------L-----|
-----------------------------------|--6--------L--------------------|


  E  E  E  E  E  E  E  E  E  E  E  E     E  E  E  E  E  E  E  E  E  E  E  E   
--5-----------------L-----5-----------|--5-----------------------L--------5--|
--------6--------6--------------------|--------5-----------------------5-----|
-----5--------5--------5--------5-----|-----6--------6-----------6-----------|
-----------7-----------------7-----7--|-----------5--------5--------5--------|
--8-----------------8-----------------|-----------------7-----7--------------|
--------------------------------------|--0-----------------------------------|


  E  E  E  E  E  E  E  E  E  E  E  E     E  E  E  E  E  E  E  E  E  E  E  E   
--5-----------L--5--6-----------L--5--|--5-----------------------------------|
--------5-----------------7-----7-----|--------------------3-----------3-----|
-----5--------5--------5-----5--------|--------4-----4-----------4-----------|
-----------5--------------------------|-----3-----3-----3-----3-----3-----3--|
--6-----------------4-----------------|--------------------5-----------5-----|
--------------------------------------|--3-----------------------------------|


  ^                                   ^                                 
  Q    Q    Q    E  E  E  E  E  E     Q    Q    Q    E  E  E  E  E  E   
-------0----1----5-----------3-----|--3----1---------------------------|
--3--------------5--5--------------|------------3----1-----------1-----|
--3--------------5-----5--------5--|--0--------------2--2--------------|
-----------------7--------7--5-----|-----------------------3-----------|
--3--------------------------------|-----------------3--------3--3--3--|
-----------------------------------|--1--------------------------------|


  E  E  E  E  E  E  E  E  E  E  E  E     E  E  E  E  E  E  E  E  E  E  E  E   
--5-----------------5-----------------|--5-----------------------------------|
--------6--------6--------5--------5--|--------7--------7--------7--------7--|
-----5--------5--------6--------6-----|-----5--------5--------5--------5-----|
-----------7-----------------7--------|-----------7--------7--------7--------|
--8-----------------7-----------------|--6-----------------------------------|
--------------------------------------|--------------------------------------|


                                           ^        >    >    >    >     
                         |----3----|                                     
  E  E  E  E  E  E  Q    Q    Q    Q       H        Q    Q    Q    Q     
--5-----------------5-------------------|--5----------------------------|
--------7--------7-------3---------3----|--4--------9----7--------------|
-----6--------6-------------------------|--2----------------------------|
-----------7------------------4---------|-----------6----4----6----7----|
--4-----------------3-------------------|--2----------------------------|
----------------------------------------|---------------------4----5----|


  ^            >          >        ^      >   >   >  >  >    >    >     
                                              |---3--|                  
  H.           Q    Q     Q        Q.     E   E   E  E  Q    Q    Q     
-------------------------------|---------------------------------------|
--2----------------------10----|--10------9--12--10--9--7--------------|
--2------------4---------------|---7-----------------------------------|
--4-----------------------7----|---7------6---9---7--6--4----6----7----|
--4------------2---------------|---------------------------------------|
--0----------------------------|-----------------------------4----5----|


  >            >          >        ^      >   >   >   >   >   >        >   
  H.           Q    Q     Q        Q.     E   E   E   E   E   Q    E   E   
-------------------------------|-----------------------------16-------14--|
--2------------0---------10----|--10------9--12--10--13--12---------------|
--2----------------------------|---8-------------------------13-------11--|
--4-----------------------7----|---7------6---9---7--10---9---------------|
--4------------2---------------|------------------------------------------|
--0----------------------------|------------------------------------------|


   >   >   >   >   >  >  >    >    >       ^             ^              
   E   E   E   E   E  E  Q    Q    Q       H        Q    H        Q     
--12--11--------------------------------|----------------0-------------|
----------14--12--10--9--7--------------|--2--------0----0--------3----|
---9---8--------------------------------|--2-------------2-------------|
----------11---9---7--6--4----6----7----|--4-------------2--------0----|
----------------------------------------|--4---------------------------|
------------------------------4----5----|--0---------------------------|


  ^              ^                 ^                                        
                                                      |--3--|               
  H        Q     H        Q        H.           E  E  E  E  E   S  S  S  S  
--4--------------9--------7----|--14---------------------------------------|
--6--------7-------------------|--12------------------------0--------12-15-|
--4-------------11-------------|--13---------------------1--------13-------|
--6-------------11--------9----|--12------------------0--------12----------|
--5----------------------------|-------------------2-----------------------|
--0----------------------------|---0------------0--------------------------|


   S  S  S  S  S  S  S  S S  S S S S S S S S S S  S S S S S  
--13----12----11----10----9----8---7---6---5---4p-0---------|
-----14----13----12----11---10---9---8---7---6------8---7---|
------------------------------------------------------8---7-|
------------------------------------------------------------|
------------------------------------------------------------|
------------------------------------------------------------|


  S S S S S  S S S S S S S S  S S S S S S S S S S  S  
-----------------------------------------------------|
--6---5---4p-0---------------------------------------|
----6---5------7---6---5---4p-0----------------------|
-----------------8---7---6------8---7---6---5---4p-0-|
----------------------------------9---8---7---6------|
-----------------------------------------------------|


  S  S  S S S S  S  S S  S S S S S  S S  S S  S  S  S   S  S   S  
-------------------------------------------0--------------13h-14-|
--------------------------------------4h-7---------12h-15--------|
---------------------------------4h-7-----------13---------------|
--4p-2p-0------------------4---6-------------14------------------|
----------2-----------5h-6---7-----------------------------------|
------------4-0h-4h-7--------------------------------------------|


   S  S  S  S  S  S  S  S  S  S S S S S S S S S S S S S S S  
------------------------------------------------------------|
--14-15-11-12-----------------------------------------------|
--------------12-13-10-11-----------------------------------|
--------------------------11-12-8-9-5-6---------------------|
----------------------------------------8-9-4-5-------------|
------------------------------------------------6-7-3-4-1-2-|


          |--3--|  |--3--|  |-----5-----|                             
  S S S S E  E  E  E  E  E  E  E  E  E  E     W                 Q     
-------------------------------------------|-------------------------|
-------------------------------------------|-------------------------|
-------------------------------------------|-------------------------|
-------------------------------------------|--------------------2----|
-------------------------------------------|-------------------------|
--0-1-0-2-0--3--0--4--0--5--0--6--0--7--0--|--8~---------------------|


  E  E  E  E  E  E  E  E  E  E  E  E     E  E  E  E  E  E  E  E  E  E  E  E   
--------------------------------------|--------------------------------------|
--2-----------------2-----------------|--2-----------------------L-----2-----|
-----------2-----------------2--------|-----------4-----------------4--------|
--------2-----2-----------2-----2-----|--------3-----3-----------3--------3--|
-----4-----------4-----4-----------4--|-----4-----------4-----4--------------|
--5-----------------------------------|--4-----------------4-----------------|


  E  E  E  E  E  E  E  E  E  E  E  E     E  E  E  E  E  E  E  E  E  E  E  E   
--------------------------------------|--------------------------------------|
--2-----------2-----3-----------2-----|--2--------------------------0-----0--|
-----------3-----------------3--------|--------2-----2-----------2-----------|
--------2--------2--------2--------2--|-----1-----1-----1--4-----------4-----|
-----4-----------------4--------------|--2--------------------2--------------|
--2-----------------------------------|--------------------------------------|


  Q    Q    Q    E  E  E  E  E  E     E  E  E  E  E  E  E  E  E  E  E  E   
-----------------------------------|--------------------------------------|
-----------------2-----------0-----|--------------------------------------|
-------1----2-------------1--------|--2-----------------------L--------2--|
--4--------------------0--------0--|--------2-----2-----------2-----2-----|
--------------------2--------------|-----4-----4-----4-----4-----4--------|
--0--------------------------------|--5-----------------5-----------------|


  E  E  E  E  E  E  E  E  E  E  E  E     E  E  E  E  E  E  E  E  E  E  E  E   
--------------------------------------|--------------------------------------|
--2-----------------2-----------------|--2-----------------------L-----2-----|
-----------2-----------------2--------|-----------4-----------------4--------|
--------2-----2-----------2-----2-----|--------3-----3-----------3--------3--|
-----4-----------4-----4-----------4--|-----4-----------4-----4--------------|
--5-----------------------------------|--4-----------------4-----------------|


  E  E  E  E  E  E  E  E  E  E  E  E     E  E  E  E  E  E  E  E  E  E  E  E   
--------------------------------------|--2-----------------------------------|
--2-----------2-----3-----------2-----|--------2-----2-----1-----1-----1-----|
-----------3-----------------0-----0--|-----2-----2-----2-----2-----2-----2--|
--------4-----------------2-----------|--1-----------------------------------|
-----4-----------4-----0--------------|--------------------------------------|
--2-----------------0-----------------|--------------------------------------|


  E  E  E  E  E  E  E  E  E  E  E  E     E  E  E  E  E  E  E  E  E  E  E  E   
--L-----------------------------------|--0-----------------------------------|
--------------------0-----------------|-----------0--------------------------|
--------2-----2--------------1--------|--------0-----0-----------0--3--0-----|
-----3-----3-----3--------3-----3-----|-----2-----------2-----2-----------2--|
--5--------------------2-----------2--|--4-----------------4-----------------|
--------------------------------------|--------------------------------------|


  E  E  E  E  E  E  E  E  E  E  E  E     E  E  E  E  E  E  E  E  E  E  E  E   
--L-----------------------------------|--------------------------------------|
--------------------------------------|--3-----------------------L-----2-----|
--------0-----------2-----------------|--------2-----2-----------2-----------|
-----1-----1-----1--------1-----1-----|-----4-----4-----4-----3-----3-----3--|
--3-----------3--------0-----0-----0--|--2-----------------2-----------------|
--------------------------------------|--------------------------------------|


                                       ^                                  
  E  E  E  E  Q    E  E  E  E  Q       H        E   E  E  E  E  E  E  E   
------------------------------------|---------------------------0--5--7--|
--2-----------0---------------------|------------------------2-----------|
-----------1-------6-----------4----|--2------------------2--------------|
-----0--3-------------------6-------|--2---------------2-----------------|
----------------------5--7----------|--4--------0h--4--------------------|
--0----------------4----------------|------------------------------------|


                                    ^                            
  H        Q    Q     Q    Q        Q    Q    Q    H.            
--9--------9----9----10----9----|--14---------------------------|
--5--------6----7-----8----8----|--10---------------------------|
--------------------------------|-------------------------------|
--------------------------------|--13---------------------------|
--------------------------------|-------------------------------|
--------------------------------|-------------------------------|


                                   ^                            
  H        Q    Q    Q    Q        Q    Q    Q    H.            
--7--------7----7----9----7----|--12---------------------------|
--3--------4----5----6----6----|---8---------------------------|
-------------------------------|-------------------------------|
-------------------------------|--11---------------------------|
-------------------------------|-------------------------------|
-------------------------------|-------------------------------|


   ^                    ^                              
   W.                   H.            Q    Q     Q     
--10----------------|----------------------0----------|
--10----------------|--12-------------L---------------|
---9----------------|--11-------------L---------------|
---7----------------|---------------------------11----|
---5----------------|--12------------11---------------|
--------------------|---0-------------L---------------|


   ^                               ^                           
   H.            Q    Q    Q       H.           H        Q     
--------------------------------|--5--------------------------|
--10-------------L--------------|--5--------------------------|
---9-------------L----5----6----|---------------7--------6----|
--11-------------L--------------|--6--------------------------|
---0-------------L----6----7----|---------------9--------7----|
--------------------------------|--5--------------------------|


  ^                  
  W.                 
--5----------------||
--5----------------||
--6----------------||
--7----------------||
--0----------------||
-------------------||

            
            
Suggest correction
Creating personal tab
Creating personal tab
You can edit any tab online and save it as your Personal.

You can edit, replace or remove any tab part or add personal notes – all changes will be seen only by you.

Personal tabs can be accessed anytime from any device, even offline.
Learn more »
Give kudos to tab author, rate the tab!
1 2 3 4 5
comments
print report bad tab
guest
You may want to rate the tab now too:
select rating
Wanna post a correction for this tab? Suggest correction