Oops, an error
Loading. Please wait.

Where Do We Go Now tab

version 4
version 4

Whole song

467 views 3 this week
no commentswrite comment
1 2 3 4 5
1 last vote to show rating
add to favorites
×
Save as Personal and add changes to this tab that will be seen only by you. Learn more ›
×
You can save this tab as Personal to edit and correct it or add notes. All changes will be seen only by you. Learn more »
launch autoscroll
font size
0
reset
how to read this tab
guitar tuner
edit
Autoscroll
slow
fast
+/-
esc
set tempo
stop
Author
Freaky Age-Where do we go now
Song: Where do we go now
Album: Every morning breaks out
Artist: Freaky Age
Tuning: Standard
Tabbed By: Tim Van de Voorde

Gtr I (E A D G B E) - 'Electric guitar-Lenny’
Gtr II (E A D G B E) - ‘Electric guitar-Mathias'

Gtr I
E|--------------------------------------------------------------------------------|
B|--------------------------------------------------------------------------------|
G|------10--------10---------10---------10-----10-10--10-----10-10--10------------|(5x)
D|---10--------10---------10---------10--------10-10--10-----10-10--10------------|
A|-8-------8-7-------7------------------------------------------------------------|
E|---------------------10-------10-8-------8-6-------6---6-6------6---------------|



4th time
Gtr II
E|-----------------------------------------------|
B|-----------------------------------------------|
G|-5~------3~------------------------------------| (2x)
D|---------------------5/7~-------5~--------3~---|
A|-----------------------------------------------|
E|-----------------------------------------------|



“Your way…”
Gtr I
E|-1--8---10--6-- \
B|-1--8---10--6--  \
G|-2--9---10--7--   \ Listen to the song to get the rhythm!
D|-3--10--12--8--   /
A|-3--10--12--8--  / 
E|-1--8---10--6-- /

Gtr II
E|-----------------------------------------------------------|
B|-----------------------------------------------------------|
G|-5-5-5-5-3-3-3-3-------------------------------------------| (2x)
D|-----------------5/7-7-7-7-5-5-5-5-3-3-3-3-----------------|
A|-------------------------------------------5-5-5-5-3-3-3-3-|
E|-----------------------------------------------------------|



“Remember times…”
Gtr I
E|--------------------------------------------------|
B|--------------------------------------------------|
G|-10--(4x)-10--(4x)-10--(4x)-10--(4x)-10--(16x)----|  (3x)
D|-10-------10-------10-------10-------10-----------|
A|-8--------7---------------------------------------|
E|-------------------10--------8-------6------------|

Gtr II
E|-------------------------------------6-6---6------6-6--6---|
B|-------------------------------------6-6---6------6-6--6---|
G|-10-------10-------10-------10-------7-7---7------7-7--7---|  (3x)
D|-10-------10-------10-------10-------8-8---8------8-8--8---|
A|-------------------------------------8-8---8------8-8--8---|
E|-------------------------------------6-6---6------6-6--6---|



“The same…”
Gtr I
E|-8--------------6--------|
B|-8--------------6--------|
G|-9--(16x)-------7--(16x)-|
D|-10-------------8--------|
A|-10-------------8--------|
E|-8--------------6--------|

Gtr II
E|-----------------------------------------------------------|
B|-----------------------------------------------------------|
G|-5-5-5-5-3-3-3-3-------------------------------------------|
D|-----------------5/7-7-7-7-5-5-5-5-3-3-3-3-----------------|
A|-------------------------------------------5-5-5-5-3-3-3-3-|
E|-----------------------------------------------------------|



“Wanted to drive home..”
Gtr I
E|-1-----5-----8--- \
B|-1-----6-----8---  \
G|-2-----7-----9---   \ Listen to the song to get the rhythm! (2x)
D|-3-----7-----10--   /
A|-3-----5-----10--  / 
E|-1-----------8--- /
                
Gtr II
E|-------------------------------------------------|
B|-13-13-13-13-11-11-11-11-10-10-10-11-11-11-11-11-|
G|-------------------------------------------------|  (2x)
D|-------------------------------------------------|
A|-------------------------------------------------|
E|-------------------------------------------------|



“There must be better places…”
Gtr I
E|--------------------------------------------------|
B|--------------------------------------------------|
G|-10--(4x)-10--(4x)-10--(4x)-10--(4x)-10--(16x)----|  (4x)
D|-10-------10-------10-------10-------10-----------|
A|-8--------7---------------------------------------|
E|-------------------10--------8-------6------------|

Gtr II
E|-------------------------------------6-6---6------6-6--6---|
B|-------------------------------------6-6---6------6-6--6---|
G|-10-------10-------10-------10-------7-7---7------7-7--7---|  (4x)
D|-10-------10-------10-------10-------8-8---8------8-8--8---|
A|-------------------------------------8-8---8------8-8--8---|
E|-------------------------------------6-6---6------6-6--6---|



“For me…”
Gtr I
E|-8--------------6--------|
B|-8--------------6--------|
G|-9--(16x)-------7--(16x)-|
D|-10-------------8--------|
A|-10-------------8--------|
E|-8--------------6--------|

Gtr II
E|-----------------------------------------------------------|
B|-----------------------------------------------------------|
G|-5-5-5-5-3-3-3-3-------------------------------------------| 
D|-----------------5/7-7-7-7-5-5-5-5-3-3-3-3-----------------|
A|-------------------------------------------5-5-5-5-3-3-3-3-|
E|-----------------------------------------------------------|



“Wanted to drive home..”
Gtr I
E|-1-----5-----8--- \
B|-1-----6-----8---  \
G|-2-----7-----9---   \ Listen to the song to get the rhythm! (2x)
D|-3-----7-----10--   /
A|-3-----5-----10--  / 
E|-1-----------8--- /
                
Gtr II
E|-------------------------------------------------|
B|-13-13-13-13-11-11-11-11-10-10-10-11-11-11-11-11-|
G|-------------------------------------------------|  (2x)
D|-------------------------------------------------|
A|-------------------------------------------------|
E|-------------------------------------------------|



Gtr I
E|-3--10--12--8--- \
B|-4--10--12--8---  \
G|-4--11--12--9---   \ Listen to the song to get the rhythm!
D|-5--12--14--10--   /
A|-5--12--14--10--  /
E|-3--10--12--8--- /

Gtr II
E|-----------------------------------------------------------|
B|-----------------------------------------------------------|
G|-7-7-7-7-5-5-5-5-------------------------------------------|
D|-----------------7/9-9-9-9-7-7-7-7-5-5-5-5-----------------|
A|-------------------------------------------7-7-7-7-5-5-5-5-|
E|-----------------------------------------------------------|



“Wanted to drive home..”
Gtr I
E|-3-----7-----10-- \
B|-3-----8-----10--  \
G|-4-----9-----11--   \ Listen to the song to get the rhythm! (2x)
D|-5-----9-----12--   /
A|-5-----7-----12--  / 
E|-3-----------10-- /
                
Gtr II
E|-------------------------------------------------|
B|-15-15-15-15-13-13-13-13-12-12-12-13-13-13-13-13-|
G|-------------------------------------------------|  (2x)
D|-------------------------------------------------|
A|-------------------------------------------------|
E|-------------------------------------------------|


Gtr I
E|---------------------------------------------------------------------------------|
B|---------------------------------------------------------------------------------|
G|--------12---------12---------12----------12---------12-12---------12-12------12-|
D|-----12---------12---------12----------12---------12-------12---12-------12---12-|
A|--10-------10-9-------9-------------------------------------------------------10-|
E|------------------------12-------12-10-------10-8-------------8-------------8----|


Tabbed by Tim Van de Voorde.

            
            
Suggest correction
Creating personal tab
Creating personal tab
You can edit any tab online and save it as your Personal.

You can edit, replace or remove any tab part or add personal notes – all changes will be seen only by you.

Personal tabs can be accessed anytime from any device, even offline.
Learn more »
Give kudos to tab author, rate the tab!
1 2 3 4 5
comments
print report bad tab
guest
You may want to rate the tab now too:
select rating
Wanna post a correction for this tab? Suggest correction