Oops, an error
Loading. Please wait.

Farewell bass

version 1
version 1

Whole song

Interactive

59 views 1 this week
no commentswrite comment
1 2 3 4 5
3 more votes to show rating
add to favorites
×
Save as Personal and add changes to this tab that will be seen only by you. Learn more ›
×
You can save this tab as Personal to edit and correct it or add notes. All changes will be seen only by you. Learn more »
launch autoscroll
font size
0
reset
guitar tuner
edit
Autoscroll
slow
fast
+/-
esc
set tempo
stop
Author
Difficulty
credit to songsterr, standard tuning, this is the way they had it formed out, i am just 
moving their tabs over here so its easier, they blend sheet music plus tabs. (sorry for 
the way i set it up in some places, wanted to make it as short as possible)

Intro/opening Chorus - Rest 5 bars - X1
G|------------------|------------------|------------------|----------------|
D|------------------|------------------|------------------|----------------|
A|-44444444---------|-------------4444-|-44444444---------|--------------4-|
E|---------44444444-|-222222222222-----|---------44444444-|-22222222-2-4---|

Verse 1 & 2 - X1 (just go straight through left to right until the bridge)
G|------------------|----------------|------------------|------------------|
D|------------------|----------------|------------------|------------------|
A|-44444444---------|----------------|-44444444---------|------------------|
E|---------44444444-|-22222222-2---4-|---------44444444-|-22222222-2-------|

G|------------------|------------------|------------------|----------------|
D|------------------|------------------|------------------|----------------|
A|-44444444---------|------------------|-44444444---------|--------------4-|
E|---------44444444-|-2222222222224444-|---------44444444-|-22222222-2-4---|

G|------------------|----------------|------------------|----------------|
D|------------------|----------------|------------------|----------------|
A|-44444444---------|----------------|-44444444---------|----------------|
E|---------44444444-|-22222222-2---4-|---------44444444-|-22222222-2---4-|

Bridge - X1
G|------------------|< X2 |------------------|------------------|
D|------------------|< X2 |------------------|------------------|
A|-66666666---------|< X2 |-22222222---------|---------44444444-|
E|---------66666666-|< X2 |---------22222222-|-44444444---------|

Chorus - X1 (sorry for missing dash at the end, just wanted to fit it)
G|------------------|------------------|------------------|-----------------|
D|------------------|------------------|------------------|-----------------|
A|------------------|------------------|-22222222---------|-44444444--------|
E|-2222222222222222-|-6666666666666666-|---------44444444-|---------66666666|

G|------------------|------------------|------------------|-----------------|
D|------------------|------------------|------------------|-----------------|
A|------------------|------------------|-22222222---------|-44444444--------|
E|-2222222222222222-|-6666666666666666-|---------44444444-|---------66664444|

Interlude - X1                          Verse 3 - X2
G|------------------|----------------| G|------------------|----------------|
D|------------------|----------------| D|------------------|----------------|
A|-44444444---------|--------------4-| A|-44444444---------|----------------|
E|---------44444444-|-22222222-2-4---| E|---------44444444-|-22222222-2---4-|

Bridge 2 - X1
G|------------------|< X2 |------------------|------------------|
D|------------------|< X2 |------------------|------------------|
A|-66666666---------|< X2 |-22222222---------|---------44444444-|
E|---------66666666-|< X2 |---------22222222-|-44444444---------|

Chorus - X1
G|------------------|------------------|------------------|-----------------|
D|------------------|------------------|------------------|-----------------|
A|------------------|------------------|-22222222---------|-44444444--------|
E|-2222222222222222-|-6666666666666666-|---------44444444-|---------66666666|

G|------------------|------------------|------------------|-----------------|
D|------------------|------------------|------------------|-----------------|
A|------------------|------------------|-22222222---------|-44444444--------|
E|-2222222222222222-|-6666666666666666-|---------44444444-|---------66664444|

Post Chrous - X2
G|------------------|------------------|
D|------------------|------------------|
A|-6666666644444444-|-22222222---------|
E|------------------|---------22224444-|

Break/Solo? - rest 5 bars aprox. - X2
*** THE LAST 4 NUMBERS IN EACH SET ARE FASTER THAN THE REST, LISTEN FOR TIMING IN SONG ***
G|----------------------|----------------------|
D|----------------------|----------------------|
A|-66666666664444444444-|-22222222221111111111-|
E|----------------------|----------------------|

G|-----------------|--------------------| X4
D|-----------------|--------------------| X4
A|-6-6-6-6---------|--------------------| X4
E|---------6-6-6-6-|-4-4-4-4-6-6-6-6----| X4

***AGAIN LISTEN FOR TIMING HERE ON THE LAST 2 NOTES IN EACH SET***
G|--------------------|--------------------|--------------------|-----------|
D|--------------------|--------------------|--------------------|-----------|
A|-666666666----------|--------------------|-666666666----------|-----------|
E|----------666666666-|-444444444666666666-|----------666666666-|-4444444446|

Outro - (Tiny rest after last note in break)- X10
G|-----------------|-----------------|
D|-----------------|-----------------|
A|-6-6-6-6---------|-----------------|
E|---------6-6-6-6-|-4-4-4-4-6-6-6-6-|

Thats it hope you enjoy, any suggestions feel free to comment.

            
            
Suggest correction
Creating personal tab
Creating personal tab
You can edit any tab online and save it as your Personal.

You can edit, replace or remove any tab part or add personal notes – all changes will be seen only by you.

Personal tabs can be accessed anytime from any device, even offline.
Learn more »
Give kudos to tab author, rate the tab!
1 2 3 4 5
comments
print report bad tab
guest
You may want to rate the tab now too:
select rating
Wanna post a correction for this tab? Suggest correction