Oops, an error
Loading. Please wait.

Rolling Down tab

version 1
version 1

Whole song

Interactive

365 views 1 this week
no commentswrite comment
1 2 3 4 5
3 more votes to show rating
add to favorites
×
Save as Personal and add changes to this tab that will be seen only by you. Learn more ›
×
You can save this tab as Personal to edit and correct it or add notes. All changes will be seen only by you. Learn more »
launch autoscroll
font size
0
reset
how to read this tab
guitar tuner
edit
Autoscroll
slow
fast
+/-
esc
set tempo
stop
Author
Difficulty
-------------------------------------------------------------------------------
                             Rolling Down - Freedom Fry
-------------------------------------------------------------------------------
Tabbed by: A. Cross
Soft Acoustic Fingerpicking

Tuning: Standard. To play along with recording capo at 3rd Fret.

Intro:
e|---------------------------------------------------------------------------|
B|---0---------0--------0--------0---------0---------0--------0-------0------|
G|--------0---------0--------0--------0---------0---------0-------0--------0-|
D|-----0---------0--------0--------0---------0---------0--------0-------0----|
A|-7---------5--------7--------5---------7---------5--------7-------5--------|
E|---------------------------------------------------------------------------|

Verse:
"The world's yours when you turn eighteen and you feel like..."
e|---------------------------------------------------------------------------|
B|---0---------0--------0--------0---------0---------0--------0-------0------|
G|--------0---------0--------0--------0---------0---------0-------0--------0-|
D|-----0---------0--------0--------0---------0---------0--------0-------0----|
A|-7---------5--------7--------5---------7---------5--------7-------5--------|
E|---------------------------------------------------------------------------|

"Which way will you go? Which way will you go?"
e|---------------------------------------------------------------------------|
B|---1---------1--------1--------1---------1---------1--------1-------1------|
G|--------0---------0--------2--------2---------0----------0-------2-------2-|
D|-----2-------- 0--------2--------2---------2---------0--------2-------2----|
A|-3--------2---------0--------0---------3---------2--------0-------0--------|
E|---------------------------------------------------------------------------|

Chorus:
"'cause it's a great big world and you know it"
e|---------------------------------------------------------------------------|
B|---0--------0---------0--------0---------0---------0-----------------------|
G|--------0--------0---------0--------0---------0----------0-----------------|
D|-----0--------0---------2--------2---------2---------2---------------------|
A|--------------------3--------3---------3--------3--------------------------|
E|-3--------3----------------------------------------------------------------|

"it's a great big world and you know it"
e|---------------------------------------------------------------------------|
B|---0--------0---------0--------0-------------------------------------------|
G|------- 0--------0---------0--------0--------------------------------------|
D|-----0--------2---------2--------2-----------------------------------------|
A|--------------------3--------3---------------------------------------------|
E|-3--------0----------------------------------------------------------------|

"it's a great big world and you're rolling down"
e|---------------------------------------------------------------------------|
B|---0--------0---------2--------2---------0-------0-------0--------0--------|
G|------- 0--------0---------0--------0---------0-------0--------0--------0--|
D|-----0--------2---------2--------2---------2-------2-------2--------0------|
A|--------------------0--------0---------------------------------------------|
E|-3--------0----------------------------0-------0-------0-------0-----------|

Bridge:
"Our day has come around, we're out of this town, out of this town"
e|---2--------2--------------------------------------------------------------|
B|--------3--------3---0--------0-------1--------0-------1-------0-----------|
G|-----2--------2----------0--------0--------0-------0-------0-------0-------|
D|-0--------0-----------0--------0--------2--------0-------2-------0---------|
A|------------------------------------3----------------3---------------------|
E|-------------------3--------3----------------3---------------3-------------|

"Our day has come around, we're out of this town, out of this town..."
e|---2--------2--------------------------------------------------------------|
B|--------3--------3---0--------0-------1--------0-------1-------0-----------|
G|-----2--------2----------0--------0--------0-------0-------0-------0-------|
D|-0--------0-----------0--------0--------2--------0-------2-------0---------|
A|------------------------------------3----------------3---------------------|
E|-------------------3--------3----------------3---------------3-------------|

"for now"
e|---2---------2--------2-------2--------------------------------------------|
B|--------3--------3--------3--------3---------------------------------------|
G|-----2---------2--------2-------2------------------------------------------|
D|-0---------0--------0-------0----------------------------------------------|
A|---------------------------------------------------------------------------|
E|---------------------------------------------------------------------------|

Breakdown:

               G                       Cmaj7
'cause it's a great big world and you know it,
       G                       Cmaj7
It's a great big world and you know it,
       G                          A7      C
It's a great big world and you're rolling down,

Chorus Out (Repeat till end):
"It's a big world and you know it..."
e|---------------------------------------------------------------------------|
B|---0--------0---------0--------0-------------------------------------------|
G|------- 0--------0---------0--------0--------------------------------------|
D|-----0--------2---------2--------2-----------------------------------------|
A|--------------------3--------3---------------------------------------------|
E|-3--------0----------------------------------------------------------------|

************************************

| /   slide up
| \   slide down
| h   hammer-on
| p   pull-off
| ~   vibrato
| +   harmonic
| x   Mute note
| b   Bend
| pb  Pre-bend
| br  Bend release
| pbr Pre-bend release
| brb Bend release bend

************************************

            
            
Suggest correction
Creating personal tab
Creating personal tab
You can edit any tab online and save it as your Personal.

You can edit, replace or remove any tab part or add personal notes – all changes will be seen only by you.

Personal tabs can be accessed anytime from any device, even offline.
Learn more »
Give kudos to tab author, rate the tab!
1 2 3 4 5
comments
print report bad tab
guest
You may want to rate the tab now too:
select rating
Wanna post a correction for this tab? Suggest correction