Oops, an error
Loading. Please wait.

So Slow tab

version 6
version 6

Interactive

394 views 6 this week
no commentswrite comment
1 2 3 4 5
2 more votes to show rating
add to favorites
×
Save as Personal and add changes to this tab that will be seen only by you. Learn more ›
×
You can save this tab as Personal to edit and correct it or add notes. All changes will be seen only by you. Learn more »
launch autoscroll
font size
0
reset
how to read this tab
guitar tuner
edit
Autoscroll
slow
fast
+/-
esc
set tempo
stop
Author
Difficulty
So Slow - Freestyle


If you have questions/suggestions, feel free to PM me.
Medyo magulo lang ako mag tab kasi d ko pa kapa yung spacing,
pero halos katunog na to ng original. Pakinggan nyo nalang yung original song
para sa timing ng kanta.
(lyrics provided by Ultimate-Guitar.com)

Enjoy!


[Intro/Chorus]


e|----------------------------------------3----------------------------0---0----------------0---0---------|
B|-5---------5-----3------T----------3----3---T-----------3-----3------1---1--T--------3----0---0---T-----|
G|-5---------5-----4------A----------4--------A-----------3-----3------2---2--A-------------0---0---A-----|
D|-5---------5-----5------P-------5-----------P-------5---3-----2------3------P--------2------------P-----|
A|-3------3--------3-----------3-----3-------------3------3-----3------------------0----------------------|
E|--------------------------------------------------------------------------------------------------------|


e|--------5------------------------------------------|
B|--------6----T-------------------------------------|
G|--------5----A-------------5----4------------------|
D|-------------P--------7----5----5------------------|
A|---0/5------------5--------5----5------------------|
E|---------------------------3----3------------------|

e|----------------------------------------3----------------------------0---0----------------0---0---------|
B|-5---------5-----3------T----------3----3---T-----------3-----3------1---1--T--------3----0---0---T-----|
G|-5---------5-----4------A----------4--------A-----------3-----3------2---2--A-------------0---0---A-----|
D|-5---------5-----5------P-------5-----------P-------5---3-----2------3------P--------2------------P-----|
A|-3------3--------3-----------3-----3-------------3------3-----3------------------0----------------------|
E|--------------------------------------------------------------------------------------------------------|


e|--------5-----------------------------------|
B|--------6----T------------------------------|
G|--------5----A-------------5----3-----------|
D|-------------P--------7----5----6-----------|
A|---0/5------------5--------5----5-----------|
E|---------------------------3----4-----------|


[Verse]

e|----------------------------------------------------------------------------------|
B|--5--5----T----5--5---------------5--5-----T-----1---1----------------------------|
G|--5--5----A----5--5---------------4--4-----A-----2---2----------------------------|
D|--7--7----P----7--7---------------5--5-----P-----3---3----------------------------|   
A|--0------------0---------------------------------0--------------------0-----------|
E|-----------------------5---7------0---------------------------0---3---------------|(x3)

e|----------------------------------------------------------------------|
B|--5--5----T----5--5---------------5--5-----T-----1---1----------------|
G|--5--5----A----5--5---------------4--4-----A-----0---0----------------|  
D|--7--7----P----7--7---------------5--5-----P-----3---3----------------|   
A|--0------------0---------------------------------3--------------------|
E|-----------------------5---7------0------------------3----------------|

I've been with you boy
Three years is quite a while
But getting too sensual
Was really not my style


You know I love you
And I like it just like this
And sometimes I feel like
Giving you more than just a kiss...

e|-0--0-------0------------------------------------------------------3--3--------3--3---------------|
B|-1--1--T----1------T---------------5--5---T----5--5--T---5--5------3--3---T----3--3---------------|
G|-2--2--A----2------A----------2----4--4---A----5--5--A---5--5------0--0---A----0--0---------------|  
D|-3-----P-----------P-------3-------5--5---P----7--7--P---7--6-------------P-----------------------|   
A|----------0------------------------------------0---------0--0-------------------------------------|
E|-----------------------------------0-------------------------------3-----------3--2---------------|



e|-0--0-------0---------0--0--------0--0--0--------------5------5-5-------------------------------------|
B|-1--1--T----1---------0--0--T-----0--0--0--T-----------6--T---6-6----T----------3---3---3-------------|
G|-2--2--A----2-----2---2--2--A-----2--1--1--A-----------5--A---5-5----A----------5---5---4-------------|  
D|-3-----P-------3------------P--------------P--------------P----------P------7---5---5---5-------------|   
A|----------0-------------------------------------0/5----5------5----------5----------------------------|
E|----------------------0--------0------------------------------------------------3---3---3-------------|


But baby it's wrong
Baby it's not my kind of game
If I give it to you now
Our love will never be the same

It won't be long
We gotta play our love just right
I know you know the time will come
But baby for tonight...


[Chorus/Intro]

Let's take it slow (so slow)
Anywhere you wanna go
Baby for you, I'll lay it all on the line

You oughtta know (oughtta know)
Boy I ain't got nowhere to go
I'll give it to you, only to you...
We gotta take it real slow


[Repeat Verses]

When we get together
You know I feel the fire
It burns up inside me, oh
That natural desire

I know that you feel it too,
I know you wanna flow
Keep dreamin' about it
And the fire starts to grow

But baby it's wrong
Baby it's not my kind of game
If I give it to you now
Our love will never be the same

It won't be long
We gotta play our love just right
I know you know the time will come
But baby for tonight...


[Repeat Chorus/Intro except]

e|--------|
B|--------|
G|----3---|
D|----6---|
A|----5---|
E|----4---|


Let's take it slow (so slow)
Anywhere you wanna go
Baby for you, I'll lay it all on the line

You oughtta know (oughtta know)
Boy I ain't got nowhere to go
I'll give it to you, only to you...
We gotta take it real slow


[Bridge]

e|---------------5------5--5--------------7-----7--7-----------5----5--5------------7-----5------------|
B|---------------6---T--6--6--T-----------8--T--8--8-----------6-T--6--6--T---------8-T---5--------5---|
G|---------------5---A--5--5--A-----------7--A--7--7-----------5-A--5--5--A---------7-A---5------5-----|
D|-------------------P--------P--------------P-------------------P--------P-----------P---7----7-------|
A|--------3s5-----------5---------5--5s7--------7-------0--3s5------5--------5--5s7-------7--7---------|
E|----3h5---------------------------------------------------------------------------------5------------|


e|---------------5------5--5--------------7--------5------------|
B|---------------6---T--6--6--T-----------8---T----5------------|
G|---------------5---A--5--5--A-----------7---A----5------------|
D|-------------------P--------P---------------P----7------------|
A|---------------5------5---------5--5s7-----------7------------|
E|-------------------------------------------------5------------|


e|---------------5-5-5-5------7-7-7-7--------------------------------------------|
B|---------------6-6-6-6------8-8-8-8-------10--10--10-10--------12\-------------|
G|---------------5-5-5-5------7-7-7-7-------10--10--10-10--------12\-------------|
D|------------------------------------------10--10--10-10--------12\-------------|
A|---------------5-5-5-5------7-7-7-7-------8---8---8--8---------10\-------------|
E|-------------------------------------------------------------------------------|


I know tomorrow
It will still be you and me
I'm savin' it all for you
Especially

Trust in me, baby
When I say this to you...
If we wait a little longer
Our love will be forever true

Let's take it slow (so slow)
Anywhere you wanna go
Baby for you, I'll lay it all on the line

You oughtta know (oughtta know)
Boy I ain't got nowhere to go
I'll give it to you, only to you...
We gotta take it real slow


[Chorus 2]

e|----------------------------------------3----------------------------0---0--------------0---0-----------|
B|-5---------5-----3------T----------3----3---T-----------3-----3------1---1--T--------3----0---0---T-----|
G|-5---------5-----4------A----------4--------A-----------3-----3------2---2--A-------------0---0---A-----|
D|-5---------5-----5------P-------5-----------P-------5---3-----2------3------P--------2------------P-----|
A|-3------3--------3-----------3-----3-------------3------3-----3------------------0----------------------|
E|--------------------------------------------------------------------------------------------------------|


e|--------5------------------------------------------|
B|--------6----T-------------------------------------|
G|--------5----A-------------5----4------------------|
D|-------------P--------7----5----5------------------|
A|---0/5------------5--------5----5------------------|
E|---------------------------3----3------------------|


e|----------------------------------------3----------------------------0---0--------------0---0-----------|
B|-5---------5-----3------T----------3----3---T-----------3-----3------1---1--T--------3----0---0---T-----|
G|-5---------5-----4------A----------4--------A-----------3-----3------2---2--A-------------0---0---A-----|
D|-5---------5-----5------P-------5-----------P-------5---3-----2------3------P--------2------------P-----|
A|-3------3--------3-----------3-----3-------------3------3-----3------------------0----------------------|
e|--------------------------------------------------------------------------------------------------------|


e|--------5------------------------------------------|
B|--------6----T-------------------------------------|
G|--------5----A-------------5----4------------------|
D|-------------P--------7----5----5------------------|
A|---0/5------------5--------5----5------------------|
E|---------------------------3----3------------------|


[Chorus/Outro]

e|----------------------------------------3----------------------------0---0--------------0---0-----------|
B|-5---------5-----3------T----------3----3---T-----------3-----3------1---1--T--------3----0---0---T-----|
G|-5---------5-----4------A----------4--------A-----------3-----3------2---2--A-------------0---0---A-----|
D|-5---------5-----5------P-------5-----------P-------5---3-----2------3------P--------2------------P-----|
A|-3------3--------3-----------3-----3-------------3------3-----3------------------0----------------------|
E|--------------------------------------------------------------------------------------------------------|


e|--------5------------------------------------------|
B|--------6----T-------------------------------------|
G|--------5----A-------------5----4------------------|
D|-------------P--------7----5----5------------------|
A|---0/5------------5--------5----5------------------|
E|---------------------------3----3------------------|

e|------------------------------------------3----------------------------0---0--------------0---0---------|
B|-5---------5-----3------T----------3----3---T-----------3-----3------1---1--T--------3----0---0---T-----|
G|-5---------5-----4------A----------4--------A-----------3-----3------2---2--A-------------0---0---A-----|
D|-5---------5-----5------P-------5-----------P-------5---3-----2------3------P--------2------------P-----|
A|-3------3--------3-----------3-----3-------------3------3-----3------------------0----------------------|
E|--------------------------------------------------------------------------------------------------------|


e|--------5------------------------------------|
B|--------6----T--------------------------1----|
G|--------5----A-------------5----3-------2----|
D|-------------P--------7----5----6-------2----|
A|---0/5------------5--------5----5------------|
E|---------------------------3----4------------|



************************************

| h  Hammer-on
| /  Slide up
| \  Slide down
| s  Slide

************************************

            
            
Suggest correction
Creating personal tab
Creating personal tab
You can edit any tab online and save it as your Personal.

You can edit, replace or remove any tab part or add personal notes – all changes will be seen only by you.

Personal tabs can be accessed anytime from any device, even offline.
Learn more »
Give kudos to tab author, rate the tab!
1 2 3 4 5
comments
print report bad tab
guest
You may want to rate the tab now too:
select rating
Wanna post a correction for this tab? Suggest correction