Oops, an error
Loading. Please wait.

Omoidasenai Hana tab

120 views 1 this week
no commentswrite comment
1 2 3 4 5
3 more votes to show rating
add to favorites
×
Save as Personal and add changes to this tab that will be seen only by you. Learn more ›
×
You can save this tab as Personal to edit and correct it or add notes. All changes will be seen only by you. Learn more »
launch autoscroll
font size
0
reset
how to read this tab
guitar tuner
edit
Autoscroll
slow
fast
+/-
esc
set tempo
stop
フレンチ・キス (French Kiss) - 思い出せない花 (Omoidasenai Hana)

Tabbed by imspazzen

Standard Tuning
Capo on 2nd fret

The GP file can be downloaded here for further reference:
http://www.4shared.com/file/jAcfWhWVba/french_kiss.html


This should be correct for the most part, however I believe this song might incorporate an open tuning.
I'm not 100% sure of this and I know nothing about them but there are notes that sound like open strings
and notes that drone that just aren't possible in the capo'd standard tuning I'm using.
Regardless, the notes are still accurate and can be played along to the song with no big problems.

Tab Legend:
h - hammer on
p - pull off
/ - slide up
\ - slide down

Intro/Main Theme
      A               C#               A/F#          A/E               D              E
e||----------------------------------|------------------------------|--0h2-------2----4--------4----|
B||---0h2-------2-----6---------6----|--2--------2----2--------2----|--------3-------------5--------|
G||*--------2---------------6--------|-------2-------------2--------|------2-------2-----4-------4--|
D||*------2-------2-1-----6-------6--|-----2-------2-----2-------2--|--0-------0--------------------|
A||---0-------0-------4-------4------|------------------------------|-------------------------------|
E||----------------------------------|--2------2------0------0------|-----------------0------0------|

  1st ending                        2nd ending
   A                                A           Asus4            Asus2         Asus4      
|-------------------------0-----||------------------------------|------------------------------|
|--2----2p0------2----------2---||--2----2p0------3--------3----|--0--------0----3--------3----|
|-----------2-----------2------*||-----------2---------2--------|-------2-------------2--------|
|-----2-------2-------2--------*||-----2-------2-----2-------2--|-----2-------2-----2----------|
|--0-------------0--0---0-------||--0-------------0------0------|--0------0------0------0------|
|---------------------0---------||------------------------------|---------------------------0--|


Verse
     A             D                A                                            E6
||-----------------2--------2----|----------------0-------------|----------------0--------0----|
||---2--------2---------3--------|--2--------2-------------2----|--2------0h2-0-------0--------|
||*-------2-----------2-------2--|-------2-------------2--------|-------2-----------1-------1--|
||*-----2-------2--0------0------|-----2-------2-----2-------2--|-----2-------2----------------|
||---0------0--------------------|--0------0------0------0------|--0-------------4------4------|
||-------------------------------|------------------------------|------------------------------|

                              Bm7          Eadd9             C#m7           F#
|----------------------0----|-----------2-------------0----|-----------4----2--------2----|
|---------------------------|--3-------------0-------------|--5---------------------------|
|--1---2---3--4----4--------|-------2-------------1--------|-------4-------------3--------|
|----------------2-------2--|-----4-------4-----4-------2--|-----6-------6-----4-------4--|
|---------------------------|--2------2--------------------|--4------4--------------------|
|--0---2---3--4------4------|----------------0------0------|----------------2------2------|

                                 1st ending                   2nd ending
  Bm7                             E                            E
|----------------2-------------|-----------------0---------||----------------0--------|
|--3--------3-------------3----|--0----------0-------------||--0--------0----0--------|
|-------2-------------2--------|-----------1---1----------*||-------1--------1--------|
|-----4-------4-----4-------4--|---------2----------------*||-----2-------2--2--------|
|--2------2------2------2------|-----0-2-------------------||----------------2--------|
|------------------------------|--0------------------------||--0------0------0--------|

   A            Asus4              A          
|-------------------------------|-------------------------|
|--0h2-------2----3--------3----|--2--------2-3--2--------|
|--------2-------------2--------|-------2-----2--2--------|
|------2-------2-----3-------3--|-----2-------3--2--------|
|--0-------0------0------0------|--0------0---0--0--------|
|-------------------------------|-------------------------|


Chorus
  A/F#                          C#m7                            D
|----------------2------------|------------------------------|--2--------2----2--------2----|
|--2--------------------------|--5--------5----5--------5----|-------3-------------3--------|
|-------2---2---------2-------|-------4-------------4-----4--|-----2-------------2----------|
|-----2-------2-----2------2--|-----6-------6-----6----------|--0------0---0--0------0---0--|
|-----------------------------|--4------4------4------4------|------------------------------|
|--2------2------2------2-----|------------------------------|------------------------------|

   A                             A/F#                          C#m7
|------------------------------|----------------2------------|------------------------------|
|--2----2p0-----0h2-----0h2----|--2--------------------------|--5--------5----5--------5----|
|---------------------2--------|-------2---2---------2-------|-------4-------------4--------|
|-----2------2------2-------2--|-----2-------2-----2---4--2--|-----6-------6-----6-------6--|
|--0------------0--------------|-----------------------------|--4------4------4------4------|
|------------------------------|--2------2------2------------|------------------------------|

   D                             
|--2--------2-------------------|--4----0-------0--------|
|-------3--------------0---0----|-----0---------0--------|
|-----2--------------2----------|------------1--1--------|
|--0------0---0--/1------1---4--|----------2----2--------|
|-------------------------------|---------------2--------|
|-------------------------------|--0------------0--------|

(note that this next part is the same as the verse only with a minor change in the 8th bar)
   A             D                A                                            E6
|----------------2--------2----|----------------0-------------|----------------0--------0----|
|--2--------2---------3--------|--2--------2-------------2----|--2------0h2-0-------0--------|
|-------2-----------2-------2--|-------2-------------2--------|-------2-----------1-------1--|
|-----2-------2--0------0------|-----2-------2-----2-------2--|-----2-------2----------------|
|--0------0--------------------|--0------0------0------0------|--0-------------4------4------|
|------------------------------|------------------------------|------------------------------|

                              Bm7          Eadd9             C#m7           F#
|----------------------0----|-----------2-------------0----|-----------4----2--------2----|
|---------------------------|--3-------------0-------------|--5---------------------------|
|--1---2---3--4----4--------|-------2-------------1--------|-------4-------------3--------|
|----------------2-------2--|-----4-------4-----4-------2--|-----6-------6-----4-------4--|
|---------------------------|--2------2--------------------|--4------4--------------------|
|--0---2---3--4------4------|----------------0------0------|----------------2------2------|
        
  Bm7                             E                          
|----------------2-------------|--0--------------0--------|
|--3--------3-------------3----|-------------0------------|
|-------2-------------2--------|--1--------1---1----------|
|-----4-------4-----4-------4--|---------2----------------|
|--2------2------2------2------|-----0-2------------------|
|------------------------------|--0-----------------------|


Then play this
   A            Asus4              A          
|-------------------------------|-------------------------|
|--0h2-------2----3--------3----|--2--------2-3--2--------|
|--------2-------------2--------|-------2-----2--2--------|
|------2-------2-----3-------3--|-----2-------3--2--------|
|--0-------0------0------0------|--0------0---0--0--------|
|-------------------------------|-------------------------|


Play Intro/Main Theme once, omitting the 1st ending and proceeding directly to the 2nd ending


Verse 2 - played exactly like Verse 1, except for the endings as shown below

  1st ending
   E 
|----------------4--------|
|--0-------0--------------|
|-------1----1/4----------|
|-----2-------------------|
|-------------------------|
|--0----------------------|

  2nd ending
   E                          A            Asus4              A          D  A
|-----------------0--------|-------------------------------|-------------1--0--------|
|--0----------0---0--------|--0h2-------2----3--------3----|--2----------3--2--------|
|-----------1---1-1--------|--------2-------------2--------|-------2-----2--2--------|
|---------2-------2--------|------2-------2-----3-------3--|-----2-------------------|
|-----0h2---------2--------|--0-------0------0------0------|--0------0---------------|
|--0--------------0--------|-------------------------------|-------------------------|


Chorus 2 - same as 1st chorus, except bars 4 and 8

  A/F#                          C#m7                            D
|----------------2------------|------------------------------|--2--------2----2--------2----|
|--2--------------------------|--5--------5----5--------5----|-------3-------------3--------|
|-------2---2---------2-------|-------4-------------4-----4--|-----2-------------2----------|
|-----2-------2-----2------2--|-----6-------6-----6----------|--0------0---0--0------0---0--|
|-----------------------------|--4------4------4------4------|------------------------------|
|--2------2------2------2-----|------------------------------|------------------------------|

   A                             A/F#                          C#m7
|----------------------------|----------------2------------|------------------------------|
|--2----2p0-----0h2p0--------|--2--------------------------|--5--------5----5--------5----|
|----------------------------|-------2---2---------2-------|-------4-------------4--------|
|-----2------2---------------|-----2-------2-----2---4--2--|-----6-------6-----6-------6--|
|--0------------0------------|-----------------------------|--4------4------4------4------|
|----------------------------|--2------2------2------------|------------------------------|
 
   D                               E
|--2--------2-------------------|--------0--0----0--------|
|-------3--------------0---0----|------0------0--0--------|
|-----2--------------2----------|----------------1--------|
|--0------0---0--/1------1---4--|----2-----------2--------|
|-------------------------------|----------------2--------|
|-------------------------------|--0-------------0--------|

   A             D                A                                            E6
|----------------2--------2----|----------------0-------------|----------------0--------0----|
|--2--------2---------3--------|--2--------2-------------2----|--2------0h2-0-------0--------|
|-------2-----------2-------2--|-------2-------------2--------|-------2-----------1-------1--|
|-----2-------2--0------0------|-----2-------2-----2-------2--|-----2-------2----------------|
|--0------0--------------------|--0------0------0------0------|--0-------------4------4------|
|------------------------------|------------------------------|------------------------------|

                              Bm7          Eadd9             C#m7           F#
|----------------------0----|-----------2-------------0----|-----------4----2--------2----|
|---------------------------|--3-------------0-------------|--5---------------------------|
|--1---2---3--4----4--------|-------2-------------1--------|-------4-------------3--------|
|----------------2-------2--|-----4-------4-----4-------2--|-----6-------6-----4-------4--|
|---------------------------|--2------2--------------------|--4------4--------------------|
|--0---2---3--4------4------|----------------0------0------|----------------2------2------|
        
  Bm7                             E                          
|----------------2-------------|--0--------------0--------|
|--3--------3-------------3----|-------------0------------|
|-------2-------------2--------|--1--------1---1----------|
|-----4-------4-----4-------4--|---------2----------------|
|--2------2------2------2------|-----0-2------------------|
|------------------------------|--0-----------------------|



Break
   A                                                                A
|-------------------------------|--------------------------------|------------------------------|
|--0h2-------2----3--------3----|--3/5-------5----5\3-------3----|--2--------2----3--------3----|
|--------2-------------2-----2--|--2/4---4--------4\2---2-----4--|-------2-------------2-----2--|
|------2-------2-----4----------|------6-------6------4----------|-----2-------2-----4----------|
|--0-------0------0------0------|--0-------0------0-------0------|--0------0------0------0------|
|-------------------------------|--------------------------------|------------------------------|

|----------------------0----|
|---------------------------|
|--1---2---3--4----4--------|
|----------------2-------2--|
|---------------------------|
|--0---2---3--4------4------|


Bridge - this part is really hard to hear clearly so it might be a little off
   D                                  A (1st inversion)                         
||---2--------2-------2------2-----|---------------------------------|
||--------3-------3-------3------3-|--2--------2-------2-------2-----|
||*-----2-------2-------2------2---|-------2-2-----2-------2-------2-|
||*--0------0-------0--------------|-----2-------2---2---2---2---2---|
||---------------------------------|--4--------------4---------------|
||---------------------------------|---------------------------------|


  1st ending                                                    2nd ending
                                                                Bm7
|---------------------------------|--------------------------||---------------------------------|
|--0------0-3-----0-3-0---0-3-0---|------3---4---5---5-5-5---||--3-------3-------3-------3------|
|-------2-----2-2-------2-------2-|--2---4---5---6---6-6-6--*||-------2------2-------2-------2--|
|-----2---------------------------|-------------------------*||-----4------4-------4-------4----|
|--2------------------------------|--0---2---3---4---4-4-4---||--2-------------2-------2--------|
|---------------------------------|--------------------------||---------------------------------|
                                     strum with thumb-----|

|--0--------0---------------0-----|--0h4---------------------|
|-------0-------0---0---0-------0-|--------0-----0--6--------|
|-----1-------1-------1-------1---|------1---1-1----6--------|
|---------------------------------|-----------------6--------|
|---------------------------------|-----------------4--------|
|--0------0-------0-------0-------|--0-----------------------|


Bridge 2
     D                             Bm7            A           x3   
||---2--------2------------------|-------------------------------||
||--------3--------5--------5----|--3--------3----2--------2-----||
||*-----2-------2-------6--------|-------2-------------2--------*||
||*--0------0---------7-------7--|-----4-------4-----2-------2--*||
||-----------------4------4------|--2------2------0------0-------||
||-------------------------------|-------------------------------||

   G (barre chord)                
|--3-----------------------------|-----------------0--------|
|--------------------------------|--------------------------|
|-------4-----4------0-----0-----|-----------1---1----------|
|--------------------------------|--2----------4------------|
|-----5-----5----0h2---0h2---0h2-|-----0h2------------------|
|--3------3----------------------|--0------0----------------|


Play Chorus 2

Then play this transition:
   A            Asus4              A          
|-------------------------------|--------------------------|
|--0h2-------2----3--------3----|--2--------2-/6--5--------|
|--------2-------------2--------|-------2-----/7--6--------|
|------2-------2-----3-------3--|-----2--------------------|
|--0-------0------0------0------|--0------0----------------|
|-------------------------------|--------------------------|


Main theme/ending
   A               C#              A/F#           A                D              E
|--------------------------------|------------------------------|--0h2-------2----4--------4----|
|--0h2-------2-----6--------6----|--2--------2----2--------2----|--------3-------------5-----4--|
|--------2--------------6-----6--|-------2-------------2-----2--|------2-------2-----4----------|
|------2-------2-1----6----------|-----2-------2-----2----------|--0-------0--------------------|
|--0-------0-------4------4------|------------------------------|-------------------------------|
|--------------------------------|--2------2------0------0------|-----------------0------0------|

   A           Asus4            Asus2         Asus4              A             Asus4
|------------------------------|------------------------------|-------------------------------|
|--2----2p0------3--------3----|--0--------0----3--------3----|--0h2---2p0------3--------3----|
|-----------2---------2--------|-------2-------------2--------|------------2---------2--------|
|-----2-------2-----2-------2--|-----2-------2-----2-------2--|------2-------2-----2-------2--|
|--0-------------0------0------|--0------0------0------0------|--0--------------0------0------|
|------------------------------|------------------------------|-------------------------------|

                      hold last note
 Asus2         Asus4          |
|-------------------------------|--5------------------------||
|--0--------0----3--------3-----|--5------------------------||
|-------2-------------2---------|--6------------------------||
|-----2-------2-----2-------2---|--7------------------------||
|--0------0------0------0-----0-|--7------------------------||
|-------------------------------|--5------------------------||

            
            
Suggest correction
Creating personal tab
Creating personal tab
You can edit any tab online and save it as your Personal.

You can edit, replace or remove any tab part or add personal notes – all changes will be seen only by you.

Personal tabs can be accessed anytime from any device, even offline.
Learn more »
Give kudos to tab author, rate the tab!
1 2 3 4 5
comments
print report bad tab
guest
You may want to rate the tab now too:
select rating
Wanna post a correction for this tab? Suggest correction