Oops, an error
Loading. Please wait.

The Woodpile tab

version 3
version 3

Whole song

1,574 views 6 this week
1 commentread comment
1 2 3 4 5
2 more votes to show rating
add to favorites
×
Save as Personal and add changes to this tab that will be seen only by you. Learn more ›
×
You can save this tab as Personal to edit and correct it or add notes. All changes will be seen only by you. Learn more »
launch autoscroll
font size
0
reset
how to read this tab
guitar tuner
edit
Autoscroll
slow
fast
+/-
esc
set tempo
stop
So I took up guitar 6 months ago, and now playing it is all I want to do. I'd rather
practice than go out. I love this song, and there's a great acoustic version on YouTube
(search Line of Best Fit). In it, low E is dropped down to D-flat (Db) so I tuned down 
all the strings. No idea if that's done ever, but Scott seems to have done it, works here and
it's played with almost the same fingering as the album version. I just can't figure out 
the chords in the chorus. Anyone knows them, let's have 'em.


INTRO + VERSE 1

db|-----------------------------------------------------------------------|
Bb|---------------------------------------------------------------------5-|
F#|------------------------------------0---------------7--------0---------|
Db|-----4------2-0-----0-------0---------------7---------0----------------|
Ab|-----------------------------------------------------------------------|
Db|-0-------0------5-------4-------0-------0-------0--------5-------5-----|

x6


PRE-CHORUS

db|------------------------------0--------0--------0--------0-------0-----|
Bb|------------------------------3-----2--3-----2--3-----2--3---2---3-----|
F#|------------------------------0-----x--0-----x--0-----x--0---x---2-----|
Db|-----4-------2-0--------------0-----4--0-----4--0-----4--0---4---0-----|
Ab|------------------4--5--2--0--5-----4--5-----4--5-----4--5---4---0-----|
Db|-0------0---------------------5-----4--5-----4--5-----4--5---4---0-----|

CHORUS - wish I knew. I tried to adapt from album-version tabs, but those I've seen
don't seem right to begin with, so...

VERSE 2 (same as 1)

db|-----------------------------------------------------------------------|
Bb|---------------------------------------------------------------------5-|
F#|------------------------------------0---------------7--------0---------|
Db|-----4------2-0-----0-------0---------------7---------0----------------|
Ab|-----------------------------------------------------------------------|
Db|-0-------0------5-------4-------0-------0-------0--------5-------5-----|

x3

PRE-CHORUS

db|------------------------------0--------0--------0--------0-------0-----|
Bb|------------------------------3-----2--3-----2--3-----2--3---2---3-----|
F#|------------------------------0-----x--0-----x--0-----x--0---x---2-----|
Db|-----4-------2-0--------------0-----4--0-----4--0-----4--0---4---0-----|
Ab|------------------4--5--2--0--5-----4--5-----4--5-----4--5---4---0-----|
Db|-0------0---------------------5-----4--5-----4--5-----4--5---4---0-----|

CHORUS ?

BRIDGE

db|-----------------0-|
Bb|--------3--------3-|
F#|------2----------2-| Play 16x while
Db|--2h4------------4-| throwing in a few
Ab|-----------------0-| of these strums
Db|-----------------0-|


LEAD & CHORUS 3 ?

            
            
Suggest correction
Creating personal tab
Creating personal tab
You can edit any tab online and save it as your Personal.

You can edit, replace or remove any tab part or add personal notes – all changes will be seen only by you.

Personal tabs can be accessed anytime from any device, even offline.
Learn more »
Give kudos to tab author, rate the tab!
1 2 3 4 5
comments
print report bad tab
1 comment total.
+1 reply
jamesrwilliam 10 Sep 17, 2013 02:19 PM

I play the chorus like this,

e|-X--X--X--X--X---X--X--X--X-X|
B|-7--5--7--10-3---7--5--7--3-3|
G|-7--0--0--9--0---7--0--0--0-2|
D|-0--X--X--X--0---0--X--X--0-0|X2
A|-0--7--9--12-5---0--7--9--5-4|
E|-0--7--9--11-5---0--7--9--5-4|

then play the last part of the pre-chorus

Might not be correct but sounds close.

guest
You may want to rate the tab now too:
select rating
Wanna post a correction for this tab? Suggest correction