Oops, an error
Loading. Please wait.

Guilttripping tab

version 1
version 1

Whole song

5,739 views 3 this week
4 commentsread comments
1 2 3 4 5
x 4
add to favorites
×
Save as Personal and add changes to this tab that will be seen only by you. Learn more ›
×
You can save this tab as Personal to edit and correct it or add notes. All changes will be seen only by you. Learn more »
launch autoscroll
font size
0
reset
how to read this tab
guitar tuner
edit
Autoscroll
slow
fast
+/-
esc
set tempo
stop
Author
INTRO
e|---------------------------------------------------------------------------|
B|-----11---11---11------11-----11-----11------------------------------------|
G|--11---11----11----11------11-----11-----11--------------------------------|
D|---------------------------------------------------------------------------|
A|---------------------------------------------------------------------------|
E|---------------------------------------------------------------------------|


CHORUS. 4x
e|-6--4--2--4--------------------------------------------------------------------|
B|-6--4--2--4--------------------------------------------------------------------|
G|-6--4--2--4--------------------------------------------------------------------|
D|-8--6--4--6--------------------------------------------------------------------|
A|-8--6--4--6--------------------------------------------------------------------|
E|-6--4--2--4--------------------------------------------------------------------|

Verses

e|-2-6-2-6-2-6-2-7/6-----------------------------------------------------------------------|
B|-2-6-2-6-2-6-2-7/6-----------------------------------------------------------------------|
G|-2-6-2-6-2-6-2-7/6-----------------------------------------------------------------------|
D|-4-8-4-8-4-8-4-9/8-----------------------------------------------------------------------|
A|-4-8-4-8-4-8-4-9/8----4----4-------------------------------------------------------------|
E|-2-6-2-6-2-6-2-7/6-----6-7----6-7--4-----------------------------------------------------|

This is all rhythm and bass. It isn't as informative as it should be (I know.) but, I 
had to make on an iPad and that isn't very easy. I'll try try and make a different one in 
the future, but as of now, this is what the tab will have to look like.

            
            
Suggest correction
Creating personal tab
Creating personal tab
You can edit any tab online and save it as your Personal.

You can edit, replace or remove any tab part or add personal notes – all changes will be seen only by you.

Personal tabs can be accessed anytime from any device, even offline.
Learn more »
comments
print report bad tab
4 comments total. Showing first comments.
0 reply
swagaliciouspin 67 Oct 31, 2014 08:16 AM

this would be great if I had 6 fingers

+2 reply
BethyHarris 162 Nov 12, 2014 09:44 AM

Yeah, but, it's actually one of the easier songs by him, to be honest with you. But, the easiest one I've found from him is Weighted!!

+2 reply
ImoPanda101 20 Jan 18, 2015 09:20 AM

You're supposed to barre it. It's not hard.

guest
You may want to rate the tab now too:
select rating
Wanna post a correction for this tab? Suggest correction