Oops, an error
Loading. Please wait.

Joyriding tab

version 2
version 2

Whole song

  • These are the tabs for Frank Iero's song "Joyridin... Show more
  • Tune every string down a half step, No Capo.
439 views 3 this week
no commentswrite comment
1 2 3 4 5
2 more votes to show rating
add to favorites
×
Save as Personal and add changes to this tab that will be seen only by you. Learn more ›
×
You can save this tab as Personal to edit and correct it or add notes. All changes will be seen only by you. Learn more »
launch autoscroll
font size
0
reset
how to read this tab
guitar tuner
edit
Autoscroll
slow
fast
+/-
esc
set tempo
stop
About this tab version
These are the tabs for Frank Iero's song "Joyriding" as he played it in the PureVolume Sessions. Frank's guitar is tuned down 1/2 step. Was this info helpful? Yes No
YouTube-Link: https://www.youtube.com/watch?v=RhAEYZ9vrsQ

[Intro]
PM|------------------------------------------------|
e|-------------------------|-----------------------|
B|-------------------------|-----------------------|
G|-------------------------|-----------------------|
D|-9--------9-----9--------|--------------9-10-12~-|
A|-10-10-10-10-10-10-10-10-|-10-10-10-10-10-10-10~-|
E|-------------------------|-----------------------|
   1  2  3  4  5  6  7  8    1  2  3  4  5  6  7  8

PM|-----------------------------------------------------------|
e|-------------------------|----------------------------------|
B|-------------------------|----------------------------------|
G|-------------------------|----------------------------------|
D|-9-----------9--------9--|----------------9--9--9--9--9-----|
A|-10-10-10-10-10-10-10-10-|-10-10-10-10-10-10-10-10-10-10-10-|
E|-------------------------|----------------------------------|
   1  2  3  4  5  6  7  8    1  2  3  4  5  6  +  7  +  8  +

PM|---------------------------------------------------------|
e|-------------------------|--------------------------------|
B|-------------------------|--------------------------------|
G|-------------------------|--------------------------------|
D|-9-----------9--------9--|-------------9--9--9--9--10-12~-|
A|-10-10-10-10-10-10-10-10-|-10-10-10-10-10-10-10-10-10-10~-|
E|-------------------------|--------------------------------|
   1  2  3  4  5  6  7  8    1  2  3  4  +  5  +  6  7  8

PM|--------------------------------------------------------|
e|-------------------------|-------------------------------|
B|-------------------------|-------------------------------|
G|-------------------------|-------------------------------|
D|-9-----------9--------9--|----------------9--9--9-----9--|
A|-10-10-10-10-10-10-10-10-|-10-10-10-10-10-10-10-10----10-|
   1  2  3  4  5  6  7  8    1  2  3  4  5  6  +  7  +  8


[Verse 1]
PM|--------------------------------------------------|
e|-------------------------|-------------------------|
B|-------------------------|-------------------------|
G|-------------------------|-------------------------|
D|-9--9--9--9--9--9--9--9--|-9--9--9--9--9--9--9--9--|
A|-10-10-10-10-10-10-10-10-|-10-10-10-10-10-10-10-10-|
E|-------------------------|-------------------------|
   1  2  3  4  5  6  7  8    1  2  3  4  5  6  7  8

PM|----------------------------------|
e|-----------------|-----------------|
B|-----------------|-----------------|
G|-----------------|-----------------|
D|-----------------|-----------------|
A|-2-2-2-2-2-2-2-2-|-3-3-3-3-5-5-5-5-|
E|-----------------|-----------------|
   1 2 3 4 5 6 7 8   1 2 3 4 5 6 7 8

PM|--------------------------------------------------|
e|-------------------------|-------------------------|
B|-------------------------|-------------------------|
G|-------------------------|-------------------------|
D|-------------------------|-------------------------|
A|-10-10-10-10-10-10-10-10-|-10-10-10-10-10-10-10-10-|
E|-------------------------|-------------------------|
   1  2  3  4  5  6  7  8    1  2  3  4  5  6  7  8

PM|----------------------------------|
e|-----------------|-----------------|
B|-----------------|-----------------|
G|-----------------|-----------------|
D|-----------------|-----------------|
A|-2-2-2-2-2-2-2-2-|-3-3-3-3-5-5-5-5-|
E|-----------------|-----------------|
   1 2 3 4 5 6 7 8   1 2 3 4 5 6 7 8

PM|--------------------------------------------------|
e|-------------------------|-------------------------|
B|-------------------------|-------------------------|
G|-------------------------|-------------------------|
D|-12-12-12-12-12-12-12-12-|-12-12-12-12-12-12-12-12-|
A|-10-10-10-10-10-10-10-10-|-10-10-10-10-10-10-10-10-|
E|-------------------------|-------------------------|
   1  2  3  4  5  6  7  8    1  2  3  4  5  6  7  8

PM|----------------------------------|
e|-----------------|-----------------|
B|-----------------|-----------------|
G|-----------------|-----------------|
D|-4-4-4-4-4-4-4-4-|-5-5-5-5-7-7-7-7-|
A|-2-2-2-2-2-2-2-2-|-3-3-3-3-5-5-5-5-|
E|-----------------|-----------------|
   1 2 3 4 5 6 7 8   1 2 3 4 5 6 7 8

PM|--------------------------------------------------|
e|-------------------------|-------------------------|
B|-------------------------|-------------------------|
G|-------------------------|-------------------------|
D|-12-12-12-12-12-12-12-12-|-12-12-12-12-12-12-12-12-|
A|-10-10-10-10-10-10-10-10-|-10-10-10-10-10-10-10-10-|
E|-------------------------|-------------------------|
   1  2  3  4  5  6  7  8    1  2  3  4  5  6  7  8

PM|------------------------|
e|-----------------|-----------------|
B|-----------------|-----------------|
G|-----------------|-----------------|
D|-9-9-9-9-9-9-9-9-|-7-7-7-7-7~------|
A|-7-7-7-7-7-7-7-7-|-5-5-5-5-5~------|
E|-----------------|-----------------|
   1 2 3 4 5 6 7 8   1 2 3 4 5 6 7 8


[Chorus]
e|-----------------|    e|-----------------|-----------------|
B|-----------------|    B|-----------------|-----------------|
G|-4---4-4---4-4-4-|    G|-4---4-4---4-4-4-|-5---5-5---5-5-5-|
D|-5---5-5---5-5-5-|    D|-4---4-4---4-4-4-|-5---5-5---5-5-5-|
A|-5---5-5---5-5-5-| x2 A|-2---2-2---2-2-2-|-3---3-3---3-3-3-|
E|-3---3-3---3-3-3-|    E|-----------------|-----------------|
   ↓   ↓ ↑   ↑ ↓ ↑         ↓   ↓ ↑   ↑ ↓ ↑   ↓   ↓ ↑   ↑ ↓ ↑    |
   1 2 3 4 5 6 7 8         1 2 3 4 5 6 7 8   1 2 3 4 5 6 7 8    |x2
                                                           -----|

[Verse 2]
PM|--------------------------------------------------|
e|-------------------------|-------------------------|
B|-------------------------|-------------------------|
G|-------------------------|-------------------------|
D|-9--9--9--9--9--9--9--9--|-9--9--9--9--9--9--9--9--|
A|-10-10-10-10-10-10-10-10-|-10-10-10-10-10-10-10-10-|
E|-------------------------|-------------------------|
   1  2  3  4  5  6  7  8    1  2  3  4  5  6  7  8

PM|----------------------------------|
e|-----------------|-----------------|
B|-----------------|-----------------|
G|-----------------|-----------------|
D|-----------------|-----------------|
A|-2-2-2-2-2-2-2-2-|-3-3-3-3-5-5-5-5-|
E|-----------------|-----------------|
   1 2 3 4 5 6 7 8   1 2 3 4 5 6 7 8

PM|--------------------------------------------------|
e|-------------------------|-------------------------|
B|-------------------------|-------------------------|
G|-------------------------|-------------------------|
D|-------------------------|-------------------------|
A|-10-10-10-10-10-10-10-10-|-10-10-10-10-10-10-10-10-|
E|-------------------------|-------------------------|
   1  2  3  4  5  6  7  8    1  2  3  4  5  6  7  8

PM|------------------|
e|-----------------|-----------------|
B|-----------------|-----------------|
G|-----------------|---5-5-----7-7---|
D|-----------------|---5-5-----7-7---|
A|-2-2-2-2-2-2-2-2-|-3-3-3-----5-5---|
E|-----------------|-----------------|
   1 2 3 4 5 6 7 8   1 2 3 4 5 6 7 8

PM|--------------------------------------------------|
e|-------------------------|-------------------------|
B|-------------------------|-------------------------|
G|-------------------------|-------------------------|
D|-12-12-12-12-12-12-12-12-|-12-12-12-12-12-12-12-12-|
A|-10-10-10-10-10-10-10-10-|-10-10-10-10-10-10-10-10-|
E|-------------------------|-------------------------|
   1  2  3  4  5  6  7  8    1  2  3  4  5  6  7  8

PM|----------------------------------|
e|-----------------|-----------------|
B|-----------------|-----------------|
G|-----------------|-----------------|
D|-4-4-4-4-4-4-4-4-|-5-5-5-5-7-7-7-7-|
A|-2-2-2-2-2-2-2-2-|-3-3-3-3-5-5-5-5-|
E|-----------------|-----------------|
   1 2 3 4 5 6 7 8   1 2 3 4 5 6 7 8

PM|--------------------------------------------------|
e|-------------------------|-------------------------|
B|-------------------------|-------------------------|
G|-------------------------|-------------------------|
D|-12-12-12-12-12-12-12-12-|-12-12-12-12-12-12-12-12-|
A|-10-10-10-10-10-10-10-10-|-10-10-10-10-10-10-10-10-|
E|-------------------------|-------------------------|
   1  2  3  4  5  6  7  8    1  2  3  4  5  6  7  8
PM|----------------|
e|-----------------|-----------------|
B|-----------------|-----------------|
G|-----------------|-----------------|
D|-9-9-9-9-9-9-9-9-|-7~--------------|
A|-7-7-7-7-7-7-7-7-|-5~--------------|
E|-----------------|-----------------|
   1 2 3 4 5 6 7 8   1 2 3 4 5 6 7 8


[Chorus]
e|-----------------|    e|-----------------|-----------------|
B|-----------------|    B|-----------------|-----------------|
G|-4---4-4---4-4-4-|    G|-4---4-4---4-4-4-|-5---5-5---5-5-5-|
D|-5---5-5---5-5-5-|    D|-4---4-4---4-4-4-|-5---5-5---5-5-5-|
A|-5---5-5---5-5-5-| x2 A|-2---2-2---2-2-2-|-3---3-3---3-3-3-|
E|-3---3-3---3-3-3-|    E|-----------------|-----------------|
   ↓   ↓ ↑   ↑ ↓ ↑         ↓   ↓ ↑   ↑ ↓ ↑   ↓   ↓ ↑   ↑ ↓ ↑
   1 2 3 4 5 6 7 8         1 2 3 4 5 6 7 8   1 2 3 4 5 6 7 8

e|-----------------|-----------------|-----------------|-----------------|
B|-----------------|-----------------|-----------------|-----------------|
G|-4---4-4---4-4-4-|-4---4-4-7---7-7-|-4---4-4---4-4-4-|-5---5-5---5-5-5-|
D|-5---5-5---5-5-5-|-5---5-5-7---7-7-|-4---4-4---4-4-4-|-5---5-5---5-5-5-|
A|-5---5-5---5-5-5-|-5---5-5-5---5-5-|-2---2-2---2-2-2-|-3---3-3---3-3-3-|
E|-3---3-3---3-3-3-|-3---3-3---------|-----------------|-----------------|
   ↓   ↓ ↑   ↑ ↓ ↑   ↓   ↓ ↑ ↓   ↓ ↑   ↓   ↓ ↑   ↑ ↓ ↑   ↓   ↓ ↑   ↑ ↓ ↑
   1 2 3 4 5 6 7 8   1 2 3 4 5 6 7 8   1 2 3 4 5 6 7 8   1 2 3 4 5 6 7 8


[Bridge]
e|-----------------|-----------------|-------------------------|
B|-----------------|-----------------|-------------------------|
G|-----------------|-----------------|-------------------------|
D|-7-7-7-7-7-7-7-7-|-7-7-7-7-9-9-9-9-|-12-12-12-12-12-12-12-12-|
A|-7-7-7-7-7-7-7-7-|-7-7-7-7-9-9-9-9-|-12-12-12-12-12-12-12-12-|
E|-5-5-5-5-5-5-5-5-|-5-5-5-5-7-7-7-7-|-10-10-10-10-10-10-10-10-|
   ↓ ↑ ↓ ↑ ↓ ↑ ↓ ↑   ↓ ↑ ↓ ↑ ↓ ↑ ↓ ↑   ↓  ↑  ↓  ↑  ↓  ↑  ↓  ↑
   1 2 3 4 5 6 7 8   1 2 3 4 5 6 7 8   1  2  3  4  5  6  7  8

e|-------------------------|-----------------|-----------------|
B|-------------------------|-----------------|-----------------|
G|-------------------------|-----------------|-----------------|
D|-12-12-12-12-14-14-14-14-|-7-7-7-7-7-7-7-7-|-7-7-7-7-7-7-7-7-|
A|-12-12-12-12-14-14-14-14-|-7-7-7-7-7-7-7-7-|-7-7-7-7-7-7-7-7-|
E|-10-10-10-10-12-12-12-12-|-5-5-5-5-5-5-5-5-|-5-5-5-5-5-5-5-5-|
   ↓  ↑  ↓  ↑  ↓  ↑  ↓  ↑    ↓ ↑ ↓ ↑ ↓ ↑ ↓ ↑   ↓ ↑ ↓ ↑ ↓ ↑ ↓ ↑
   1  2  3  4  5  6  7  8    1 2 3 4 5 6 7 8   1 2 3 4 5 6 7 8

e|-------------------------|----------------|
B|-------------------------|----------------|
G|-------------------------|----------------|
D|-10-10-10-10-10-10-10-10-|-5--5-5-2---2-2-|
A|-10-10-10-10-10-10-10-10-|-5--5-5-2---2-2-|
E|-8--8--8--8--8--8--8--8--|-3--3-3-0---0-0-|
   ↓  ↑  ↓  ↑  ↓  ↑  ↓  ↑   ↓   ↓ ↑ ↓   ↓ ↑
   1  2  3  4  5  6  7  8   1 2 3 4 5 6 7 8


[Chorus]
e|-----------------|    e|-----------------|-----------------|
B|-----------------|    B|-----------------|-----------------|
G|-4---4-4---4-4-4-|    G|-4---4-4---4-4-4-|-5---5-5-7---7-7-|
D|-5---5-5---5-5-5-|    D|-4---4-4---4-4-4-|-5---5-5-7---7-7-|
A|-5---5-5---5-5-5-| x2 A|-2---2-2---2-2-2-|-3---3-3-5---5-5-|
E|-3---3-3---3-3-3-|    E|-----------------|-----------------|
   ↓   ↓ ↑   ↑ ↓ ↑         ↓   ↓ ↑   ↑ ↓ ↑   ↓   ↓ ↑ ↓   ↓ ↑
   1 2 3 4 5 6 7 8         1 2 3 4 5 6 7 8   1 2 3 4 5 6 7 8

e|-----------------|    e|-----------------|-----------------|
B|-----------------|    B|-----------------|-----------------|
G|-4---4-4---4-4-4-|    G|-4---4-4---4-4-4-|-5---5-5---5-7-7-|
D|-5---5-5---5-5-5-|    D|-4---4-4---4-4-4-|-5---5-5---5-7-7-|
A|-5---5-5---5-5-5-| x2 A|-2---2-2---2-2-2-|-3---3-3---3-5-5-|
E|-3---3-3---3-3-3-|    E|-----------------|-----------------|
   ↓   ↓ ↑   ↑ ↓ ↑         ↓   ↓ ↑   ↑ ↓ ↑   ↓   ↓ ↑   ↑ ↓ ↑
   1 2 3 4 5 6 7 8         1 2 3 4 5 6 7 8   1 2 3 4 5 6 7 8

e|-----------------|    e|-----------------|-----------------|
B|-----------------|    B|-----------------|-----------------|
G|-4---4-4---4-4-4-|    G|-4---4-4---4-4-4-|-5---5-5---5-7-7-|
D|-5---5-5---5-5-5-|    D|-4---4-4---4-4-4-|-5---5-5---5-7-7-|
A|-5---5-5---5-5-5-| x2 A|-2---2-2---2-2-2-|-3---3-3---3-5-5-|
E|-3---3-3---3-3-3-|    E|-----------------|-----------------|
   ↓   ↓ ↑   ↑ ↓ ↑         ↓   ↓ ↑   ↑ ↓ ↑   ↓   ↓ ↑   ↑ ↓ ↑
   1 2 3 4 5 6 7 8         1 2 3 4 5 6 7 8   1 2 3 4 5 6 7 8

e|-----------------|-----------------|-----------------|-----------------|
B|-----------------|-----------------|-----------------|-----------------|
G|-4---4-4---4-4-4-|-4---4-4-7---7-7-|-4---4-4---4-4-4-|-5---5-5---5-5-5-|
D|-5---5-5---5-5-5-|-5---5-5-7---7-7-|-4---4-4---4-4-4-|-5---5-5---5-5-5-|
A|-5---5-5---5-5-5-|-5---5-5-5---5-5-|-2---2-2---2-2-2-|-3---3-3---3-3-3-|
E|-3---3-3---3-3-3-|-3---3-3---------|-----------------|-----------------|
   ↓   ↓ ↑   ↑ ↓ ↑   ↓   ↓ ↑ ↓   ↓ ↑   ↓   ↓ ↑   ↑ ↓ ↑   ↓   ↓ ↑   ↑ ↓ ↑
   1 2 3 4 5 6 7 8   1 2 3 4 5 6 7 8   1 2 3 4 5 6 7 8   1 2 3 4 5 6 7 8

e|-----------------|-----------------|-----------------|-----------------|
B|-----------------|-----------------|-----------------|-----------------|
G|-4~~-------------|-----------------|-4~~-------------|-5~~-------------|
D|-5~~-------------|-----------------|-4~~-------------|-5~~-------------|
A|-5~~-------------|-----------------|-2~~-------------|-3~~-------------|
E|-3~~-------------|-----------------|-----------------|-----------------|
   ↓                                   ↓                 ↓
   1 2 3 4 5 6 7 8   1 2 3 4 5 6 7 8   1 2 3 4 5 6 7 8   1 2 3 4 5 6 7 8

e|-----------------|-----------------|-----------------|-----------------|
B|-----------------|-----------------|-----------------|-----------------|
G|-4~~-------------|-----------------|-4~~-------------|-5~~-------------|
D|-5~~-------------|-----------------|-4~~-------------|-5~~-------------|
A|-5~~-------------|-----------------|-2~~-------------|-3~~-------------|
E|-3~~-------------|-----------------|-----------------|-----------------|
   ↓                                   ↓                 ↓
   1 2 3 4 5 6 7 8   1 2 3 4 5 6 7 8   1 2 3 4 5 6 7 8   1 2 3 4 5 6 7 8

e|-----------------|    e|-----------------|-----------------|
B|-----------------|    B|-----------------|-----------------|
G|-4---4-4---4-4-4-|    G|-4---4-4---4-4-4-|-5---5-5---5-5-5-|
D|-5---5-5---5-5-5-|    D|-4---4-4---4-4-4-|-5---5-5---5-5-5-|
A|-5---5-5---5-5-5-| x2 A|-2---2-2---2-2-2-|-3---3-3---3-3-3-|
E|-3---3-3---3-3-3-|    E|-----------------|-----------------|
   ↓   ↓ ↑   ↑ ↓ ↑         ↓   ↓ ↑   ↑ ↓ ↑   ↓   ↓ ↑   ↑ ↓ ↑
   1 2 3 4 5 6 7 8         1 2 3 4 5 6 7 8   1 2 3 4 5 6 7 8

e|-----------------|-----------------|-----------------|-----------------|
B|-----------------|-----------------|-----------------|-----------------|
G|-4---4-4---4-4-4-|-4---4-4-7---7-7-|-4---4-4---4-4-4-|-5---5-5---5-5-5-|
D|-5---5-5---5-5-5-|-5---5-5-7---7-7-|-4---4-4---4-4-4-|-5---5-5---5-5-5-|
A|-5---5-5---5-5-5-|-5---5-5-5---5-5-|-2---2-2---2-2-2-|-3---3-3---3-3-3-|
E|-3---3-3---3-3-3-|-3---3-3---------|-----------------|-----------------|
   ↓   ↓ ↑   ↑ ↓ ↑   ↓   ↓ ↑ ↓   ↓ ↑   ↓   ↓ ↑   ↑ ↓ ↑   ↓   ↓ ↑   ↑ ↓ ↑
   1 2 3 4 5 6 7 8   1 2 3 4 5 6 7 8   1 2 3 4 5 6 7 8   1 2 3 4 5 6 7 8


[Outro]
e|-------------------------|-------------------------|
B|-------------------------|-------------------------|
G|-------------------------|-------------------------|
D|-10-10-10-10-10-10-10-10-|-10-10-10-10-10-10-10-10-|
A|-10-10-10-10-10-10-10-10-|-10-10-10-10-10-10-10-10-| x2
E|-8--8--8--8--8--8--8--8--|-8--8--8--8--8--8--8--8--|
   ↓  ↑  ↓  ↑  ↓  ↑  ↓  ↑    ↓  ↑  ↓  ↑  ↓  ↑  ↓  ↑
   1  2  3  4  5  6  7  8    1  2  3  4  5  6  7  8

e|-3~~-------3-3-3-|
B|-3~~-------3-3-3-|
G|-0~~-------0-0-0-|
D|-0~~-------0-0-0-|
A|-2~~-------2-2-2-|
E|-3~~-------3-3-3-|
   ↓         ↓ ↑ ↓
   1 2 3 4 5 6 7 8

            
            
Suggest correction
Creating personal tab
Creating personal tab
You can edit any tab online and save it as your Personal.

You can edit, replace or remove any tab part or add personal notes – all changes will be seen only by you.

Personal tabs can be accessed anytime from any device, even offline.
Learn more »
Give kudos to tab author, rate the tab!
1 2 3 4 5
comments
print report bad tab
guest
You may want to rate the tab now too:
select rating
Wanna post a correction for this tab? Suggest correction