Oops, an error
Loading. Please wait.

Shes The Prettiest Girl At The Party And She Can Prove It With A Solid Right Hook chords

version 3
version 3

Whole song

  • Tabbed from the tutorial the artist made himself, ... Show more

Interactive

898 views 6 this week
2 commentsread comments
1 2 3 4 5
x 3
add to favorites
×
Save as Personal and add changes to this tab that will be seen only by you. Learn more ›
×
You can save this tab as Personal to edit and correct it or add notes. All changes will be seen only by you. Learn more »
launch autoscroll
font size
0
reset
transpose
0
reset
simplify chords
display chords
guitar tuner
edit
Autoscroll
slow
fast
+/-
esc
set tempo
stop
Difficulty
About this tab version
Tabbed from the tutorial the artist made himself, It explains which type of chords to play when and is easy to follow. It also includes the links to the tutorial and performace of the song. Was this info helpful? Yes No
Strumming
There is no strumming pattern for this song yet. and get +5 IQ
-------------------------------------------------------------------------------------------
   .She's the prettiest girl at the party and she can prove it with a solid right hook.
-------------------------------------------------------------------------------------------
https://youtu.be/nZzxMegSG6s
https://youtu.be/mVf0Up7Gvzk

There is a tutorial by Frank on YouTube(Blunt TV) that he did but it was so hard to follow. 
The Dm chord that he uses is a Dm without the second finger but I don't know what that's called 
so yeah, sorry! Also the G chord is played differently in the verse and chorus unless it says normal.
  G:      Dm:     Fsus:                                                  
e|0|     e|1|     e|0|                                            / slide down
B|3|     B|3|     B|1|                                            h Hammer on
G|4|     G|0|     G|0|                                            p Pull off
D|5|     D|0|     D|0|
A|0|     A|0|     A|0|
E|0|     E|0|     E|0|
  

And in the bridge, the F, C and G chords are all barre chords.

------------------------------------------------------------------------------------------------


[Intro]

e|---0---0--------3---3------0---0----3---3h5-----------------------------------------------------|
B|--1-1-1-1--3/5-5-5-5-5--3-1-1-1--3/5-5-5---5/6-6---6---5-3---3---3---6---8-6-5-3-3h5p3-1-0-1----|
G|----------------------------------------------0-0-0-0-0---0-0-0-0-0-0-0-0-----------------------| x2
D|------------------------------------------------------------------------------------------------|
A|------------------------------------------------------------------------------------------------|
E|------------------------------------------------------------------------------------------------|


[Verse 1]

                C
I   got   my   bags   all   packed   and   I'm   ready   to   go
Am
I'm   standing   outside   of   your   figurative   door
              Dm                                    Fsus
and   I'm   ready   for   the   flight   or   to   fall   off   a   cliff
                   Fmaj7                                G   
But   if   it's   alright   with   you   I'd   rather   not   miss   out   on   us


C
Cause   your   face   is   all   I   need   to   stay   sane
Am
I've   spent   my   life   getting   in   my   own   way
         Dm                                      Fsus
So   I   could   use   something   good,  I   really   need   this   to   work   out
               Fmaj7                           G
Of course the way things have gone it might be smarter to just cash out


[Chorus]


Fmaj7                     G
But   you're   on   my   mind
            C                     C/B               Am                 G (normal)
And   the   things   that   you   say   hurt   me   most   of   the   time
      Fmaj7            G
But   I'm   sinking   fast   so   it's   alright


[Interlude]

e|---0---0--------3---3------0---0----3---3--------------|
B|--1-1-1-1--3/5-5-5-5-5--3-1-1-1--3/5-5-5-5-3-1---------|
G|-------------------------------------------------------| 
D|-------------------------------------------------------|
A|-------------------------------------------------------|
E|-------------------------------------------------------|


[Verse 2]

                   C
I've   tied   my   stomach   in   knots   and   I'm  ready   to   know
     Am
I'll   put   it   on   the   line   if   you'd   just   give   it   a   go
          Dm                                          Fsus
Cause   I   want   to   be   the   only   one   to   hold  you   so   close   and   so   tight
       Fmaj7                                      G
And   if   it's   cool   with   you   I'd   really   love   to   spend   the   night

C
You   say   you   never   wanna   be   saved
     Em
Well   that's   okay   cause   I   wouldn't   know   how
      Am
Just   know    that    the   best   that   I'll   ever   be
   G (normal)
Is   whatever   you   make   me   and   wherever  you   are


[Chorus]

Fmaj7                G
You're   on   my   mind
            C                    C/B                Am               G (Normal)
And   the   things   that   you   say   hurt   me   most  of   the   time
      Fmaj7             G
But   I'm   on   your   side,
            C                  C/B         Am            G (Normal)
Cause   I   know   I'm   not   easy   to   deal   with   sometimes
   Fmaj7               G            
But   I'm   sinking   fast   so   it's   alright


[Bridge] (F,C,G as barre chords)

Am          Em      F
All   we   wanted   was   what   we   were
C                            G                  Am
And   what   we   were   was   young   and   naïve
                Em                      F
I   found   my   place   in   this   world
            G
It's in your wake, in your wake, in your wake


[Chorus]

Fmaj7                G
You're   on   my   mind
            C                    C/B                Am               G (Normal)
And   the   things   that   you   say   hurt   me   most  of   the   time
    Fmaj7                 G
But   I'm   on   your   side
            C                  C/B         Am            G (Normal)
Cause   I   know   I'm   not   easy   to   deal   with   sometimes           
    Fmaj7               G
But   once   in   a   while,
     C                  C/B             Am              G (Normal)
I   wish   you   would   tell   me   if   you   even   care
      Fmaj7              G    Fmaj7              G
Cause   I'm   sinking   fast,   I'm   sinking   fast
   Fmaj7
I   need   you  (x5)
                     G
I   need  you   to   know   that   I'm   alright 


[Outro]

e|---0---0--------3---3------0---0----3---3h5-----------------------------------------------------|
B|--1-1-1-1--3/5-5-5-5-5--3-1-1-1--3/5-5-5---5/6-6---6---5-3---3---3---6---8-6-5-3-3h5p3-1-0-1----|
G|----------------------------------------------0-0-0-0-0---0-0-0-0-0-0-0-0-----------------------|
D|------------------------------------------------------------------------------------------------|
A|------------------------------------------------------------------------------------------------|
E|------------------------------------------------------------------------------------------------|

End on C


            
            
Suggest correction
Creating personal tab
Creating personal tab
You can edit any tab online and save it as your Personal.

You can edit, replace or remove any tab part or add personal notes – all changes will be seen only by you.

Personal tabs can be accessed anytime from any device, even offline.
Learn more »
Give kudos to tab author, rate the tab!
1 2 3 4 5
comments
print report bad tab
2 comments total.
0 reply
mreddiemustdie 10 Jun 21, 2017 06:52 PM

Let's call this dm "that strange d" like Frank did

0 reply
mreddiemustdie 10 Jun 21, 2017 06:54 PM

Let's call this dm "that weird d" like Frank did

guest
Wanna post a correction for this tab? Suggest correction