Oops, an error
Loading. Please wait.

Abandon Your Friends tab

version 1
version 1

Whole song

Interactive

3,037 views 1 this week
1 commentread comment
1 2 3 4 5
x 8
add to favorites
×
Save as Personal and add changes to this tab that will be seen only by you. Learn more ›
×
You can save this tab as Personal to edit and correct it or add notes. All changes will be seen only by you. Learn more »
launch autoscroll
font size
0
reset
how to read this tab
guitar tuner
edit
Autoscroll
slow
fast
+/-
esc
set tempo
stop
Author
Difficulty
Tuning: Standard

 Intro and verse:
e|------------------------0-----3-2-8-7--|
B|------3---------3---------3-1----------|
G|-------0-0-------0-0---0---------------|
D|---2-4--4----2-4--4---2--2-2-2-2-------|
A|--2---------2--------3---3-3-3-3-7-7---|
E|-0---------0---------------------8-8---|

Pre-Chorus/Pre-Coro

e|------------------------0---0-----8-7-------------------|
B|-------3--------3---------3---1-0-----------------------|
G|-------0-0------0--0---0--------------------------------|
D|---2-4--4----2-4--4---2--2-2-2-2------------------------|
A|--2---------2--------3---3-3-3-3-7-7--------------------|
E|-0---------0---------------------8-8--------------------|


In the chorus just play the intro
(En el coro solo toca el intro)

 Guitars come in(Cuando entran las guitarras):
  Guitar 1 part :
e|-----------------------|
B|-----------------------|
G|--------5--------------|
D|-2------5-x32----------|
A|-2-x32--3--------------|
E|-0---------------------|

 Guitar 2 part:
e|--------------------------------------------------------------------------|
B|--------------------------------------------------------------------------|
G|-999-111111-12-12-12-14-14-14-12-12-12-11-11-everything-x2--9-------------|
D|-xxx--x-x-x--x--x--x--x--x--x--x--x--x--x--x----------------x-let ring----|
A|-777--9-9-9-10-10-10-12-12-12-10-10-10--9--9--todox2--------7-dejar sonar-|
E|-000--0-0-0--0--0--0--0--0--0--0--0--0--0--0----------------8-------------|

Outro:
e|------------------------0---2-3-5-8--7------|
B|------3---------3---------3-----------------|
G|-------0-0-------0-0---0--------------------|
D|---2-4--4----2-4--4---2--2-2-2-2------------|
A|--2---------2--------3---3-3-3-3-7----------|
E|-0---------0---------------------8--8---0---|

                         

            
            
Suggest correction
Creating personal tab
Creating personal tab
You can edit any tab online and save it as your Personal.

You can edit, replace or remove any tab part or add personal notes – all changes will be seen only by you.

Personal tabs can be accessed anytime from any device, even offline.
Learn more »
comments
print report bad tab
1 comment total.
0 reply
Guitarist_24 51 May 04, 2007 02:33 PM

good job.

guest
You may want to rate the tab now too:
select rating
Wanna post a correction for this tab? Suggest correction