Oops, an error
Loading. Please wait.

Chloroform Perfume solo tab

version 1
version 1

Solo

Whole song

Interactive

3,408 views 3 this week
2 commentsread comments
1 2 3 4 5
x 3
add to favorites
×
Save as Personal and add changes to this tab that will be seen only by you. Learn more ›
×
You can save this tab as Personal to edit and correct it or add notes. All changes will be seen only by you. Learn more »
launch autoscroll
font size
0
reset
how to read this tab
guitar tuner
edit
Autoscroll
slow
fast
+/-
esc
set tempo
stop
Solo

E ----------------------------------------------------------------------|
B --3----1--0--0>1-------3----1--0--0>1--------3----1--0--0>1--------0--|
G ------------------0--------------------0---------------------0--------|
D ----------------------------------------------------------------------|
A ----------------------------------------------------------------------|
E ----------------------------------------------------------------------|

E ----------------------------------------------------------|
B 1>0-1>3-1>0---1---0------------1---0-----3--1----1---0----|
G --------------------0-0-0------------0--------------------|
D ----------------------------------------------------------|
A ----------------------------------------------------------|
E ----------------------------------------------------------|


E --3-2-0---0--------------------|
B --------3---1-3----------------|
G ----------------0-2---0--------|
D --------------------2---0-2----|
A ----------------------------2--|
E -------------------------------|

            
            
Suggest correction
Creating personal tab
Creating personal tab
You can edit any tab online and save it as your Personal.

You can edit, replace or remove any tab part or add personal notes – all changes will be seen only by you.

Personal tabs can be accessed anytime from any device, even offline.
Learn more »
Give kudos to tab author, rate the tab!
1 2 3 4 5
comments
print report bad tab
2 comments total.
0 reply
Metal_Faith 10 Jan 12, 2007 06:40 PM

Works like a charm! Nice tab

0 reply
Lennac 10 Feb 17, 2009 06:48 AM

The run at the end is a bit off.

|3-2-0---0-----------------------|
|------3---1-3-0-1---------------|
|------------------2-4-0-2---0---|
|--------------------------4---2-|
|--------------------------------|
|--------------------------------|

guest
Wanna post a correction for this tab? Suggest correction