Oops, an error
Loading. Please wait.

Everything I Need tab

1,536 views 1 this week
2 commentsread comments
1 2 3 4 5
2 more votes to show rating
add to favorites
×
Save as Personal and add changes to this tab that will be seen only by you. Learn more ›
×
You can save this tab as Personal to edit and correct it or add notes. All changes will be seen only by you. Learn more »
launch autoscroll
font size
0
reset
how to read this tab
guitar tuner
edit
Autoscroll
slow
fast
+/-
esc
set tempo
stop
Everything I Need- From Autumn to Ashes

Intro            
D||------------------------|-------|
A||------------------------|-------|
F||------------------------|-------|     
C||--0----3S----8----3S----|--7----|
G||--0----3S----8----3S----|--7----|
C||--0----3S----8----3S----|--7----|





Verse   
--------------------------|--------------------------|--------------------------|
--------------------------|--------------------------|--------------------------|
--14----14----14----14----|--14----12----15----15----|--14----12----14----10----|
--------------------------|--------------------------|--------------------------|
--12----12----12----12----|--12----10----13----13----|--12----10----12-----8----|
--------------------------|--------------------------|--------------------------|  


   
--------------------------|--------------------------|--------|
--------------------------|--------------------------|--------|
--17----17----10----10----|--14----14----14----14----|--15----|
--------------------------|--------------------------|--------|
--15----15-----8-----8----|--12----12----12----12----|--13----|
--------------------------|--------------------------|--------|





Chorus  
----------------------|----------------------|-----------------|
----------------------|----------------------|-----------------|
----------------------|----------------------|-----------------|
--7----7----8----7----|-------7----7----7----|--8----7---------|
----------------------|--8-------------------|------------8----|
----------------------|----------------------|-----------------|

  


Bridge

   PM   PM                  PM   PM                                  
|------------------------|------------------------|------------|-------|-------------|
|------------------------|------------------------|------------|-------|-------------|
|------------14----14----|------------14----14----|------------|-------|--10----9----|
|--0----0----------------|--0----0----------------|--8----0----|-------|-------------|
|--0----0----12----12----|--0----0----12----12----|--8----0----|-------|---8----7----|
|--0----0----------------|--0----0----------------|--8----0----|-------|-------------|





 trem picking part
--------------------------|--------------------------|--------------------||
--------------------------|--------------------------|--------------------||
--14----15----14----15----|--17----15----14----10----|--14----15----14----||
--------------------------|--------------------------|--------------------||
--12----13----12----13----|--15----13----12-----8----|--12----13----12----||
--------------------------|--------------------------|--------------------||


            
            
Suggest correction
Creating personal tab
Creating personal tab
You can edit any tab online and save it as your Personal.

You can edit, replace or remove any tab part or add personal notes – all changes will be seen only by you.

Personal tabs can be accessed anytime from any device, even offline.
Learn more »
Give kudos to tab author, rate the tab!
1 2 3 4 5
comments
print report bad tab
2 comments total.
0 reply
FATAROX333 20 Oct 21, 2008 06:20 PM

I think the solo actually goes something like this (i did it in standard tuning but it will sound the same one whole step higher in drop C)
tremolo picking
E-------------------------------------------------------------------|
B------8--9-8-9---11--9--8-----4--11-9-8----------------------------|
G-------------------------------------------------------------------|
D-------------------------------------------------------------------|
A-------------------------------------------------------------------|
E-------------------------------------------------------------------|


E------------------------------------|------------------------------|
B---------9-8-9---11--9--8-----4--11-|---8----9----11----13--15--16-|
G------------------------------------|------------------------------|
D------------------------------------|------------------------------|
A------------------------------------|------------------------------|
E------------------------------------|------------------------------|

0 reply
am529 10 Oct 13, 2009 05:26 PM

I think this is a more accurate version of the tremolo picking part.

D-5--6-5-6-8-6-5---8-6-5--6-5-6-8-6-5---8-5--6--8--10--12--13-------|
A----------------6--------------------6-----------------------------|
F-------------------------------------------------------------------|
C-------------------------------------------------------------------|
G-------------------------------------------------------------------|
C-------------------------------------------------------------------|

can't say for sure that it's 100% right, but it sounds like the same notes and the same octave as in the song to me.

guest
You may want to rate the tab now too:
select rating
Wanna post a correction for this tab? Suggest correction