Oops, an error
Loading. Please wait.

Placentapede tab

version 2
version 2

Whole song

531 views 1 this week
no commentswrite comment
1 2 3 4 5
2 more votes to show rating
add to favorites
×
Save as Personal and add changes to this tab that will be seen only by you. Learn more ›
×
You can save this tab as Personal to edit and correct it or add notes. All changes will be seen only by you. Learn more »
launch autoscroll
font size
0
reset
how to read this tab
guitar tuner
edit
Autoscroll
slow
fast
+/-
esc
set tempo
stop
Difficulty
intermediate
-------------------------------------------------------------------------------
                             Placentapede - From Autumn To Ashes
-------------------------------------------------------------------------------
Tabbed by: Riz
Email: insomniacsdream@msn.com

Tuning: Standard eBGDAE


Intro (00:00 - 00:10)

Guitar 1
e|---------------------------------------------------------------------------|
B|---------------------------------------------------------------------------|
G|--------------------------------------------------14-12-11-14-12-11-14-12--|
D|---------------------------------------------------------------------------|
A|--10p7---7---9---10-10-12-12-12----10p7---7---9----------------------------|
E|-------0---0---0-8--8--10-10-10-00------0---0---0--------------------------|
 |       *   *   *                **      *   *   *                          |
e|---------------------------------------------------------------------------|
B|---------------------------------------------------------------------------|
G|---------------------------------------------------------------------------|
D|------------------------------------9-99999999999999-----------------------|
A|--10p7---7---9---10-10-12-12-12-----9-99999999999999-----------------------|
E|-------0---0---0-8--8--10-10-10-----7-77777777777777-----------------------|
         *   *   *                      ******

Guitar 2
e|---------------------------------------------------------------------------|
B|---------------------------------------------------------------------------|
G|--------------------------------------------------7-7-6-7-7-6-7-7----------|
D|---------------------------------------------------------------------------|
A|--10p7---7---9---10-10-12-12-12----10p7---7---9----------------------------|
E|-------0---0---0-8--8--10-10-10-00------0---0---0--------------------------|
 |       *   *   *                **      *   *   *                          |
e|---------------------------------------------------------------------------|
B|---------------------------------------------------------------------------|
G|---------------------------------------------------------------------------|
D|------------------------------------9-99999999999999-----------------------|
A|--10p7---7---9---10-10-12-12-12-----9-99999999999999-----------------------|
E|-------0---0---0-8--8--10-10-10-----7-77777777777777-----------------------|
         *   *   *                      ******


Verse (00:10 - 00:41) (01:30 - 02:01)

Guitar 1
e|---------------------------------------------------------------------------|
B|---------------------------------------------------------------------------|
G|--------------------------------------------------14-12-11-14-12-11-14-12--|
D|---------------------------------------------------------------------------|
A|--10p7---7---9---10-10-12-12-12----10p7---7---9----------------------------|
E|-------0---0---0-8--8--10-10-10-00------0---0---0--------------------------|
 |       *   *   *                **      *   *   *                          |
e|---------------------------------------------------------------------------|
B|---------------------------------------------------------------------------|
G|---------------------------------------------------------------------------|
D|------------------------------------9-99-9-9-9-9-9-9-----------------------|
A|--10p7---7---9---10-10-12-12-12-----9-99-9-9-9-9-9-9-----------------------|
E|-------0---0---0-8--8--10-10-10-----7-77-7-7-7-7-7-7-----------------------|
         *   *   *                  

Guitar 2
e|---------------------------------------------------------------------------|
B|---------------------------------------------------------------------------|
G|--------------------------------------------------7-7-6-7-7-6-7-7----------|
D|---------------------------------------------------------------------------|
A|--10p7---7---9---10-10-12-12-12----10p7---7---9----------------------------|
E|-------0---0---0-8--8--10-10-10-00------0---0---0--------------------------|
 |       *   *   *                **      *   *   *                          |
e|---------------------------------------------------------------------------|
B|---------------------------------------------------------------------------|
G|------------------------------------12-1212-12-12-12-12-12-12--------------|
D|-------------------------------------x--x-x--x--x--x--x--x--x--------------|
A|--10p7---7---9---10-10-12-12-12-----10-1010-10-10-10-10-10-10--------------|
E|-------0---0---0-8--8--10-10-10--------------------------------------------|
         *   *   *                  



Pre-Chorus (00:41 - 01:04) (02:01 - 02:23)

Guitar 1
e|---------------------------------------------------------------------------|
B|---------------------------------------------------------------------------|
G|--------------------------------------------------14-12-11-14-12-11-14-12--|
D|---------------------------------------------------------------------------|
A|--10p7---7---9---10-10-12-12-12----10p7---7---9----------------------------|
E|-------0---0---0-8--8--10-10-10-00------0---0---0--------------------------|
 |       *   *   *                **      *   *   *                          |
e|---------------------------------------------------------------------------|
B|---------------------------------------------------------------------------|
G|---------------------------------------------------------------------------|
D|-----------------------------------9---10----------------------------------|
A|--10p7---7---9---10-10-12-12-12----9---10--x4------------------------------|
E|-------0---0---0-8--8--10-10-10----7---8-----------------------------------|
         *   *   *                

Guitar 2
e|---------------------------------------------------------------------------|
B|---------------------------------------------------------------------------|
G|--------------------------------------------------7-7-6-7-7-6-7-7----------|
D|---------------------------------------------------------------------------|
A|--10p7---7---9---10-10-12-12-12----10p7---7---9----------------------------|
E|-------0---0---0-8--8--10-10-10-00------0---0---0--------------------------|
 |       *   *   *                **      *   *   *                          |
e|---------------------------------------------------------------------------|
B|---------------------------------------------------------------------------|
G|---------------------------------------------------------------------------|
D|---------------------------------------9---10----9----12-------------------|
A|--10p7---7---9---10-10-12-12-12------9---10---10----10---x4----------------|
E|-------0---0---0-8--8--10-10-10----7----8----8----10-----------------------|
         *   *   *                

Both Guitars
e|---------------------------------------------------------------------------|
B|---------------------------------------------------------------------------|
G|---------------------------------------------------------------------------|
D|--1010101010101010--1212121212121212---------------------------------------|
A|--1010101010101010--1212121212121212---------------------------------------|
E|--8-8-8-8-8-8-8-8---1010101010101010---------------------------------------|
    * * * *


Chorus (01:04 - 01:30) (02:24 - 02:50) (04:07 - 04:33)

Guitar 1
e|---------------------------------------------------------------------------|
B|---------------------------------------------------------------------------|
G|------------------------------------5555555555555555-7777777777777777------|
D|--5555555555555555-2222222222222222-5555555555555555-7777777777777777------|
A|--5555555555555555-2222222222222222-3333333333333333-5555555555555555------|
E|--3333333333333333-0000000000000000------------------------------------15/-|
 |                                                                           |
e|---------------------------------------------------------------------------|
B|---------------------------------------------------------------------------|
G|------------------------------------5555555555555555-----------------------|
D|--5555555555555555-2222222222222222-5555555555555555-7777-7777-------------|
A|--5555555555555555-2222222222222222-3333333333333333-7777-7777-------------|
E|--3333333333333333-0000000000000000------------------5555-5555-------------|


Guitar 2
e|---------------------------------------------------------------------------|
B|---------------------------------------------------------------------------|
G|--12---------------16---------------17---------------14--------------------|
D|---x--Let Ring------x--Let Ring------x--Let Ring------x--Let Ring----------|
A|--10---------------14---------------15---------------12--------------------|
E|---------------------------------------------------------------------------|
 |  v------------Strum 4x Each------------v                                  |
e|---------------------------------------------------------------------------|
B|---------------------------------------------------------------------------|
G|--12-14-16-17---12-14-16-17---12-14-16-17---14141414-14141414--14-16-14-12-|
D|---x--x--x-x-----x--x--x--x----x--x--x--x----x-x-x-x--x-x-x-x---x--x--x--x-|
A|--10-12-14-15---10-12-14-15---10-12-14-15---12121212-12121212--12-14-12-10-|
E|---------------------------------------------------------------------------|



Breakdown 1 (2:51 - 3:22)

Guitar 1                                                    +    +
e|---------------------------------------------------------------------------|
B|---------------------------------------------------------------7-----------|
G|--12~~----------------------------------------------------5----------------|
D|---x-----------------------------------------------------------------------|
A|--10~~---------------------------------------------------------------------|
E|---------------------------------------------------------------------------|
     ^Swell volume knob in and out                        


Guitar 2 (Clean)
e|---------------------------------------------------------------------------|
B|---------------------------------------------------------------------------|
G|--------12-1212-12/14-1414-14/16-1616-16/17-1717-17-16~--------------------|
D|---------x--x-x--x/-x--x-x--x/-x--x-x--x/-x--x-x--x--x---------------------|
A|--------10-1010-10/12-1212-12/14-1414-14/15-1515-15-14~--------------------|
E|---------------------------------------------------------------------------|
 |                                                                           |
e|---------------------------------------------------------------------------|
B|---------------------------------------------------------------------------|
G|--------12-1212-12/14-1414-14/16-1616-16/17-1717-17-14~--------------------|
D|---------x--x-x--x/-x--x-x--x/-x--x-x--x/-x--x-x--x--x---------------------|
A|--------10-1010-10/12-1212-12/14-1414-14/15-1515-15-12~--------5*---4*-----|
E|-------------------------------------------------------------0----0--------|
                                               Last time only^ .    .


Breakdown 2 (3:23 - 4:06)

Both Guitars x2
e|---------------------------------------------------------------------------|
B|---------------------------------------------------------------------------|
G|--------12-1212-12/14-1414-14/16-1616-16/17-1717-17-16~--------------------|
D|---------x--x-x--x/-x--x-x--x/-x--x-x--x/-x--x-x--x--x---------------------|
A|--------10-1010-10/12-1212-12/14-1414-14/15-1515-15-14~--------------------|
E|---------------------------------------------------------------------------|
 |                                                                           |
e|---------------------------------------------------------------------------|
B|---------------------------------------------------------------------------|
G|--------12-1212-12/14-1414-14/16-1616-16/17-1717-17-14~--------------------|
D|---------x--x-x--x/-x--x-x--x/-x--x-x--x/-x--x-x--x--x---------------------|
A|--------10-1010-10/12-1212-12/14-1414-14/15-1515-15-12~--------5*---4*-----|
E|-------------------------------------------------------------0----0--------|
                                                               .    .

Both Guitars
e|---------------------------------------------------------------------------|
B|---------------------------------------------------------------------------|
G|--55555/777-44444/555--55555/777-44444/555--55555555-7777777---------------|
D|--55555/777-44444/555--55555/777-44444/555--55555555-7777777---------------|
A|--33333/555-22222/333--33333/555-22222/333--33333333-5555555---------------|
E|---------------------------------------------------------------------------|





Final Chorus/Rad Solo Bit (04:33 - 05:15)

Guitar 1
e|---------------------------------------------------------------------------|
B|---------------------------------------------------------------------------|
G|------------------------------------5555555555555555-7777777777777777------|
D|--5555555555555555-2222222222222222-5555555555555555-7777777777777777------|
A|--5555555555555555-2222222222222222-3333333333333333-5555555555555555------|
E|--3333333333333333-0000000000000000----------------------------------------|
 |                                                                           |
e|---------------------------------------------------------------------------|
B|---------------------------------------------------------------------------|
G|------------------------------------5555555555555555-----------------------|
D|--5555555555555555-2222222222222222-5555555555555555-7777-7777-------------|
A|--5555555555555555-2222222222222222-3333333333333333-7777-7777-------------|
E|--3333333333333333-0000000000000000------------------5555-5555-------------|


Guitar 2
e|---------------------------------------------------------------------------|
B|--15-13-12----12-----------------------------------------------------------|
G|-----------14----14-12-11-12-11----11--------------------------------------|
D|--------------------------------14----14-12-10-9h10p9----12~----12---------|
A|---------------------------------------------------------------------------|
E|---------------------------------------------------------------------------|
 |                                                                           |
e|---------------------------------------------------------------------------|
B|--15-13-12----12-----------------------------------------------------------|
G|-----------14----14-12-11-12-11----11--------------------------------------|
D|--------------------------------14----14-12-10-9---------------------------|
A|---------------------------------------------------------------------------|
E|---------------------------------------------------------------------------|
 |                                                                           |
e|---------------------------------------------------------------------------|
B|---------------------------------------------------------------------------|
G|--5/7-7/9-9/11-11/12-12/14-14/16-16/17/16----------------------------------|
D|---------------------------------------------------------------------------|
A|---------------------------------------------------------------------------|
E|---------------------------------------------------------------------------|
 |                                                                           |
e|---------------------------------------------------------------------------|
B|--15-13-12----12-----------------------------------------------------------|
G|-----------14----14-12-11-12-11----11--------------------------------------|
D|--------------------------------14----14-12-10-9----12~----12--------------|
A|---------------------------------------------------------------------------|
E|---------------------------------------------------------------------------|
 |                                                                           |
e|---------------------------------------------------------------------------|
B|--15-13-12----12-----------------------------------------------------------|
G|-----------14----14-12-11-12-11----11--------------------------------------|
D|--------------------------------14----14-12-10-9---------------------------|
A|---------------------------------------------------------------------------|
E|---------------------------------------------------------------------------|
 |                                                                           |
e|---------------------------------------------------------------------------|
B|---------------------------------------------------------------------------|
G|--5/7-7/9-9/11-11/12-12/14-14/16-16/17/16~---------------------------------|
D|---------------------------------------------------------------------------|
A|---------------------------------------------------------------------------|
E|---------------------------------------------------------------------------|

e|---------------------------------------------------------------------------|
B|---------------------------------------------------------------------------|
G|---------------------------------------------------------------------------|
D|---------------------------------------------------------------------------|
A|---------------------------------------------------------------------------|
E|---------------------------------------------------------------------------|




************************************

| /   slide up
| \   slide down
| h   hammer-on
| p   pull-off
| ~   vibrato
| +   harmonic
| x   Mute note
| b   Bend
| pb  Pre-bend
| br  Bend release
| pbr Pre-bend release
| brb Bend release bend

************************************

            
            
Suggest correction
Creating personal tab
Creating personal tab
You can edit any tab online and save it as your Personal.

You can edit, replace or remove any tab part or add personal notes – all changes will be seen only by you.

Personal tabs can be accessed anytime from any device, even offline.
Learn more »
Give kudos to tab author, rate the tab!
1 2 3 4 5
comments
print report bad tab
guest
Wanna post a correction for this tab? Suggest correction