Oops, an error
Loading. Please wait.

Reflections bass

version 2
version 2

Whole song

Interactive

325 views 1 this week
no commentswrite comment
1 2 3 4 5
3 more votes to show rating
add to favorites
×
Save as Personal and add changes to this tab that will be seen only by you. Learn more ›
×
You can save this tab as Personal to edit and correct it or add notes. All changes will be seen only by you. Learn more »
launch autoscroll
font size
0
reset
guitar tuner
edit
Autoscroll
slow
fast
+/-
esc
set tempo
stop
Author
Difficulty
From Autumn to Ashes
Reflections
Too Bad You’re Beautiful
Standard Tuning: E A D G

This tab is trying to replace the huge void left by the current tab floating around for
song.  Everything should be right on this one and if you were led astray by the other
large amount of mistakes or missing parts, please give this one a try.  Any suggestions, 
comments, or constructive criticism are all greatly appreciated!  Enjoy! :)

Acoustic Part 1 – 0:08 - Play part in parentheses first and third time through
4x
G|-------------|--------4-2-----2-------------|
D|-------------|----2-4-----4-----4-2-0-(2)---|
A|--0---0---0--|--2-----------0---------------|
E|-------------|------------------------------|

Acoustic Part 2 – 0:41			6x		   2x
G|------------------------------------|------------|
D|------------2-4-5-4-4-2-0-2-0-------|------------|
A|--22222222--------------------4-2-0-|-2-4-2-0----|
E|------------------------------------|------------|

Part 1  2:25       4x
G|-------------------|
D|-------------------|
A|-------------------|
E|--00000----00000---|

Part 2 – 2:51 - On the fourth time through, only play everything before the parentheses
                                         4x
G|----------------------------------------------------------|
D|--------------------------(7-8-7-5------------------------|
A|-----------------------5-----------8-7-5--7-8-7-5-7-5-3)--|
E|--0000000--0000000000-------------------------------------|

Part 3 – 3:10
G|---------------------|
D|---------------------|
A|---------------------|
E|--0----0----0----0---|

Part 4	- 3:31      2x
G|--------------------|
D|----2---2---4-------|
A|--2---0---5-----0---|
E|--------------3-----|


Part 5 – 3:49 - Slow down last time through
                           4x
G|----------------------------|
D|----------------------------|
A|--2-0-----------------------|
E|------33333333333333--2-0---|

Part 6	- 4:10	4x
G|--------------|
D|--------------|
A|--------------|
E|--0---1-1-1---|

Part 7 – 4:24       8x
G|--------------------|
D|--------------------|
A|--------------------|
E|--00000----000111---|

Part 1 – 4:54 4x

Part 8 – 5:19
G|-----------------------------|
D|-----------------------------|
A|-----------------------------|
E|--7-5-3---5-------5------3---|

Part 9 - 5:33                               6x
G|---------------------------------------------|
D|--------------------------------5555--4444---|
A|--55555555--77777777--33333333---------------|
E|---------------------------------------------|

Part 10 – 6:05  2x (Play second part only on last time through)
G|----------------|---------------------|
D|----------------|---------------------|
A|--55555--33333--|---------------------|
E|----------------|--0---0---0---0---0--|

Part 7 – 6:21 - 8x (Hold very last note)

Part 7 – 7:07 - 4x

            
            
Suggest correction
Creating personal tab
Creating personal tab
You can edit any tab online and save it as your Personal.

You can edit, replace or remove any tab part or add personal notes – all changes will be seen only by you.

Personal tabs can be accessed anytime from any device, even offline.
Learn more »
Give kudos to tab author, rate the tab!
1 2 3 4 5
comments
print report bad tab
guest
You may want to rate the tab now too:
select rating
Wanna post a correction for this tab? Suggest correction