Oops, an error
Loading. Please wait.

Sugar Wolf solo tab

version 1
version 1

Solo

Whole song

Interactive

1,331 views 3 this week
3 commentsread comments
1 2 3 4 5
x 5
add to favorites
×
Save as Personal and add changes to this tab that will be seen only by you. Learn more ›
×
You can save this tab as Personal to edit and correct it or add notes. All changes will be seen only by you. Learn more »
launch autoscroll
font size
0
reset
how to read this tab
guitar tuner
edit
Autoscroll
slow
fast
+/-
esc
set tempo
stop
Difficulty
intermediate
sugar wolf - from august to ashes
tab by flyador@msn.com
tunning
1e 2a 3d 4g 5h 6e

--------------------------------------------|-----------------------------------------------------------------|
------12-----15------12-13-12-------12------|-12-----15------12-13-12-----------------------------------------|
---------12----12---------------12-------12-|------12----12---------------12--------------12-11--------12-11--|
--------------------------------------------|---------------------------------------12--14---------12-14------|
--------------------------------------------|-----------------------------------------------------------------|
--------------------------------------------|-----------------------------------------------------------------|

--------------------------------------------|-----------------------------------------------------------------|
------12-----15------12-13-12-------12------|-12-----15------12-13-12-----------------------------------------|
---------12----12---------------12-------12-|------12----12---------------12--------------12-11--------12-11--|
--------------------------------------------|---------------------------------------12--14---------12-14------|
--------------------------------------------|-----------------------------------------------------------------|
--------------------------------------------|-----------------------------------------------------------------|

-----------------------------------------------------------------------------------------------|
-------------------------------------------------------------------------------------------8~--|
------0------------------------------------------------------------------------------------7~--|
---2----2-------2-----0------------0-------------0-------------0---------------------------5~--|
3----------3-------2------------0------0-----0------0------2------2-----2-------0----------7~--|
-----------------------------2------------2-------------3-------------3------2-------0---------|

-----------------------------------------------------------------------------------------------------|
------------------------------12-----15------12-13-12-------12-------12-----15------12-13-12---------|
---------12-11---------12-11-------12----12-----------12---------12-------12----12---------------12--|
12--14---------12-14---------------------------------------------------------------------------------|
-----------------------------------------------------------------------------------------------------|
-----------------------------------------------------------------------------------------------------|
-----------------------------------------------------------------------------------------------------|

-----14-15-14-------------------------14-15-14---------------------------|
15---------------15^17^15^17---15--------------15^17^15^17---------------|
-------------------------------------------------------------------------|
-------------------------------------------------------------------------|
-------------------------------------------------------------------------|
-------------------------------------------------------------------------|
-------------------------------------------------------------------------|

---------------------------------------------------------------------|
12-----15------12-13-12-------12-------12-----15------12-13-12-------|
-----12----12---------------12-----12-----12----12---------------12--|
---------------------------------------------------------------------|
---------------------------------------------------------------------|
---------------------------------------------------------------------|

-----14-15-14-------------------------14-15-14---------------------------|
15---------------15^17^15^17---15--------------15^17^15^17---------------|
-------------------------------------------------------------------------|
-------------------------------------------------------------------------|
-------------------------------------------------------------------------|
-------------------------------------------------------------------------|
-------------------------------------------------------------------------|


---------------------------------------------------------------12--|
13-12--------------------12-13-12---------------------12-----------|
--------14-12-11-12-14------------14-12-11-12-14-------------------|
-------------------------------------------------------------------|
-------------------------------------------------------------------|
-------------------------------------------------------------------|

---------------------------------------10-------------------------------------------------------|
---------------------7-8-10-7---9----------12-13-12------12-13-1----------------------12-13-15--|
-------------5-7-9--------------------------------------------------14---12--11-12-14-----------|
-------5-7-9------------------------------------------------------------------------------------|
5-7-9-------------------------------------------------------------------------------------------|
------------------------------------------------------------------------------------------------|

12-------------------------------------12-14-15---------15---------------------------|
-------15--13--12--13----------------12------------------------------15-15-13-12-13--|
-----------------------------------12---------------------------12-------------------|
-----------------------------12-14---------------------------------------------------|
-------------------------------------------------------------------------------------|
-------------------------------------------------------------------------------------|

15------------------------------------------------------------------12----------------------------------|
------15-15-13-12-13---13-12-13-12------------------------12-13-15------15-13-12-13---------------------|
---12----------------------------------14-12----11-12-14-----------------------------------12-11--------|
-------------------------------------------------------------------------------------------------12-14--|
--------------------------------------------------------------------------------------------------------|
--------------------------------------------------------------------------------------------------------|

sorry but i have wrote just one voice. and it's my first tab and i'a 14years ald.... see you latter, have fun

            
            
Suggest correction
Creating personal tab
Creating personal tab
You can edit any tab online and save it as your Personal.

You can edit, replace or remove any tab part or add personal notes – all changes will be seen only by you.

Personal tabs can be accessed anytime from any device, even offline.
Learn more »
comments
print report bad tab
3 comments total.
-1 reply
FallXFromXGrace 10 Jun 17, 2006 03:01 PM

From August To Ashes?? Dumbass Poser

0 reply
danxbrown 31 Mar 09, 2007 07:55 PM

pretty great tab man

0 reply
elimental389 298 Oct 27, 2016 11:38 PM

good tab, accurate enough you should have no problem figure out was it isnt and what it should be

guest
Wanna post a correction for this tab? Suggest correction