Oops, an error
Loading. Please wait.

Mothersound tab

version 2
version 2

Whole song

704 views 1 this week
1 commentread comment
1 2 3 4 5
x 3
add to favorites
×
Save as Personal and add changes to this tab that will be seen only by you. Learn more ›
×
You can save this tab as Personal to edit and correct it or add notes. All changes will be seen only by you. Learn more »
launch autoscroll
font size
0
reset
how to read this tab
guitar tuner
edit
Autoscroll
slow
fast
+/-
esc
set tempo
stop
Guitar 1
(intro)
e ------------------------------------|
B ------------------------------------|
G ------------------------------------|
D -7--7--7--7-7-7-6--6--6--10-10-10---|
A -7--7--7--7-7-7-6--6--6--10-10-10---|
D -7--7--7--7-7-7-6--6--6--10-10-10---|

(chorus)
e ------------------------------------------------------------------|
B ------------------------------------------------------------------|
G ------------------------------------------------------------------|
D -7777777777777777666666666666666633333333333333332222222222222222-
A -7777777777777777666666666666666633333333333333332222222222222222-
D -7777777777777777666666666666666633333333333333332222222222222222-

e ------------------------------------------------------------------|
B ------------------------------------------------------------------|
G ------------------------------------------------------------------|
D -0000000000000000222222222222222233333333333333336666666666666666-
A -0000000000000000222222222222222233333333333333336666666666666666-
D -0000000000000000222222222222222233333333333333336666666666666666-

(verse)
e-------------------------------------------------------------------------------|
B-------------------------------------------------------------------------------|
G-------------------------------------------------------------------------------|
D-7-7-7777-7-7-7777-7-7-7777-7-7-7777-7-7-7777-7-7-7777-6-6-6666-10-10-10101010-| x2
A-7-7-7777-7-7-7777-7-7-7777-7-7-7777-7-7-7777-7-7-7777-6-6-6666-10-10-10101010-|
D-7-7-7777-7-7-7777-7-7-7777-7-7-7777-7-7-7777-7-7-7777-6-6-6666-10-10-10101010-|

Chorus

(bridge)
e--------------------------------------------|
B--------------------------------------------|
G--------------------------------------------|
D-7777777777777777-66666666-1010101010101010-| x2
A-7777777777777777-66666666-1010101010101010-|
D-7777777777777777-66666666-1010101010101010-|


e-------------------------------------------|
B-------------------------------------------|
G-------------------------------------------|
D-7-7-7777-6-6-6666-7-7-7777-10-10-10101010-| x2
A-7-7-7777-6-6-6666-7-7-7777-10-10-10101010-|
D-7-7-7777-6-6-6666-7-7-7777-10-10-10101010-|

e--------------------------------|
B--------------------------------|
G--------------------------------|
D-7~-------6~-------7~-------10~-|
A-7~-------6~-------7~-------10~-|
D-7~-------6~-------7~-------10~-|

e---------------------------------------------------------------------------|
B---------------------------------------------------------------------------|
G---------------------------------------------------------------------------|
D-77-77-77-77-7-7-66-66-66-66-6-6-77-77-77-77-7-7-1010-1010-1010-1010-10-10-|
A-77-77-77-77-7-7-66-66-66-66-6-6-77-77-77-77-7-7-1010-1010-1010-1010-10-10-|
D-77-77-77-77-7-7-66-66-66-66-6-6-77-77-77-77-7-7-1010-1010-1010-1010-10-10-|

e---------------------------------------------|
B---------------------------------------------|
G---------------------------------------------|
D-77777777-66666666-77777777-1010101010101010-|
A-77777777-66666666-77777777-1010101010101010-|
D-77777777-66666666-77777777-1010101010101010-|

Chorus x2

(outro)
e-----------------------------------------------------------------|
B-----------------------------------------------------------------|
G-----------------------------------------------------------------|
D-777------------666------------777------------101010----77777777-| x4
A-777------------666------------777------------101010----77777777-|
D-777------------666------------777------------101010----77777777-|
PM                                                       ........

e------------------------------------------------------------------|
B------------------------------------------------------------------|
G------------------------------------------------------------------|
D-777-777-777-777-666------------777------------101010----77777777-|
A-777-777-777-777-666------------777------------101010----77777777-|
D-777-777-777-777-666------------777------------101010----77777777-|
PM    ... ... ...                                         ... ...
----------------------------------------------------------------------
Guitar 2
Intro
Chorus

(verse)
e----------------------------------------------------------------------------------|
B----------------------------------------------------------------------------------|
G----------------------------------------------------------------------------------|
D-7-7-6h777-7-7-7777-7-7-6h777-7-7-7777-7-7-6h777-7-7-7777-6-6-6666-10-10-10101010-|
A-7-7-6h777-7-7-7777-7-7-6h777-7-7-7777-7-7-6h777-7-7-7777-6-6-6666-10-10-10101010-|
D-7-7-6h777-7-7-7777-7-7-6h777-7-7-7777-7-7-6h777-7-7-7777-6-6-6666-10-10-10101010-|

e----------------------------------------------------------------------------------|
B----------------------------------------------------------------------------------|
G----------------------------------------------------------------------------------|
D-7-7-6h777-7-7-7777-7-7-6h777-7-7-7777-7-7-6h777-7-7-7777-6-6-6666-10-10-10101010-|
A-7-7-6h777-7-7-7777-7-7-6h777-7-7-7777-7-7-6h777-7-7-7777-6-6-6666-10-10-10101010-|
D-7-7-6h777-7-7-7777-7-7-6h777-7-7-7777-7-7-6h777-7-7-7777-6-6-6666-10-10-10101010-|

chorus

(bridge)
e---------------------------------------------------------|
B---------------------------------------------------------|
G-----10101010999977--------10101010-9999-7777------------| x2
D-7777--------------10106666------------------10101010----|
A---------------------------------------------------------|
D---------------------------------------------------------|
e---------------------------------------------------------|
B---------------------------------------------------------|
G-----10p9p7-----10p9p7-----------------------------------|
D-7-7--------6-6------------------------------------------| x4
A---------------------------------------------------------|
D---------------------------------------------------------|

e---------------------------|
B---------------------------|
G----------------7-7h9h10p9-| x4
D-7-7h9h10p9-9h10-----------|
A---------------------------|
D---------------------------|

e-----------------------------------------------------------------|
B-----------------------------------------------------------------|
G-----------------------------------------------------------------|
D-101010101010101099999999101010101010101012b12b12b12b12b12b12b12b
A-----------------------------------------------------------------|
D-----------------------------------------------------------------|

Chorus x2

This is just a shorter version of Mothersound put together easier, its missing guitar 
solo but other than that it should be fine.

            
            
Suggest correction
Creating personal tab
Creating personal tab
You can edit any tab online and save it as your Personal.

You can edit, replace or remove any tab part or add personal notes – all changes will be seen only by you.

Personal tabs can be accessed anytime from any device, even offline.
Learn more »
Give kudos to tab author, rate the tab!
1 2 3 4 5
comments
print report bad tab
1 comment total.
0 reply
frontman54 94 Sep 28, 2006 07:49 PM

It is the exact same thing as the other tab, except not the full song. It looks like you just Copy + Pasted parts of the other tab and called it your owne.

guest
You may want to rate the tab now too:
select rating
Wanna post a correction for this tab? Suggest correction