Oops, an error
Loading. Please wait.

Ride The Wings Of Pestilence tab

version 8
1,346 views 1 this week
no commentswrite comment
1 2 3 4 5
x 3
add to favorites
×
Save as Personal and add changes to this tab that will be seen only by you. Learn more ›
×
You can save this tab as Personal to edit and correct it or add notes. All changes will be seen only by you. Learn more »
launch autoscroll
font size
0
reset
how to read this tab
guitar tuner
edit
Autoscroll
slow
fast
+/-
esc
set tempo
stop
Author
Difficulty
 Ride the wings of pestilence                           


                                                              From First To Last
guitar 1
none



     S S S S S S S S S S S S S S S S  
E||----------------------------------|
B||--8-8-8-8---------8-8-8-8---------|
G||----------7-7-7-7---------7-7-7-7-|
D||----------------------------------|
A||----------------------------------|
D||----------------------------------|


   S  S  S  S S S S S  S  S  S  S S S S S    S S S S S S S S S S S S S S S S  
------------------------------------------|----------------------------------|
--10-10-10-10---------11-11-11-11---------|--8-8-8-8---------8-8-8-8---------|
--------------7-7-7-7-------------7-7-7-7-|----------7-7-7-7---------7-7-7-7-|
------------------------------------------|----------------------------------|
------------------------------------------|----------------------------------|
------------------------------------------|----------------------------------|


   S  S  S  S S S S S  S  S  S  S S S S S    S S S S S S S S S S S S S S S S  
------------------------------------------|----------------------------------|
--10-10-10-10---------11-11-11-11---------|--8-8-8-8---------8-8-8-8---------|
--------------7-7-7-7-------------7-7-7-7-|----------7-7-7-7---------7-7-7-7-|
------------------------------------------|----------------------------------|
------------------------------------------|----------------------------------|
------------------------------------------|----------------------------------|


   S  S  S  S S S S S  S  S  S  S S S S S    S S S S S S S S S S S S S S S S  
------------------------------------------|----------------------------------|
--10-10-10-10---------11-11-11-11---------|--8-8-8-8---------8-8-8-8---------|
--------------7-7-7-7-------------7-7-7-7-|----------7-7-7-7---------7-7-7-7-|
------------------------------------------|----------------------------------|
------------------------------------------|----------------------------------|
------------------------------------------|----------------------------------|


   S  S  S  S S S S S  S  S  S  S S S S S  
------------------------------------------|
--10-10-10-10---------11-11-11-11---------|
--------------7-7-7-7-------------7-7-7-7-|
------------------------------------------|
------------------------------------------|
------------------------------------------|


  E  E   S  S  S  S E  E   S  S  S  S    E  E   S  S  S  S E  E   S  S  S  S  
--------10----------------10----------|--------10----------------10----------|
--8--8-----13-11-10-8--8-----13-11-10-|--8--8-----13-11-10-8--8-----13-11-10-|
--------------------------------------|--------------------------------------|
--------------------------------------|--------------------------------------|
--------------------------------------|--------------------------------------|
--------------------------------------|--------------------------------------|


  E  E   S  S  S  S E  E   S  S  S  S    E  E   S  S  S  S E  E   S  S  S  S  
--------10----------------10----------|--------10----------------10----------|
--8--8-----13-11-10-8--8-----13-11-10-|--8--8-----13-11-10-8--8-----13-11-10-|
--------------------------------------|--------------------------------------|
--------------------------------------|--------------------------------------|
--------------------------------------|--------------------------------------|
--------------------------------------|--------------------------------------|


   S  S  S  S  S  S  S  S  S  S  S  S  S  S  S  S  
--10----------10----------10----------10----------|
-----13-11-10----13-11-10----13-11-10----13-11-10-|
--------------------------------------------------|
--------------------------------------------------|
--------------------------------------------------|
--------------------------------------------------|


   S  S  S  S  S  S  S  S  S  S  S  S  S  S  S  S  
--10----------10----------10----------10----------|
-----13-11-10----13-11-10----13-11-10----13-11-10-|
--------------------------------------------------|
--------------------------------------------------|
--------------------------------------------------|
--------------------------------------------------|


                      |--3--| |--3--|                        |--3--| |--3--|  
  E  E  S S S S E  E  S  S  S S  S  S    E  E  S S S S E  E  S  S  S S  S  S  
--------------------------------------|--------------------------------------|
--------------------------------------|--------------------------------------|
--------8-8-8---------5h-7p-5-3h-5p-3-|--------8-8-8---------5h-7p-5-3h-5p-3-|
--5--5--------5-L--5------------------|--5--5--------5-L--5------------------|
--------------------------------------|--------------------------------------|
--------------------------------------|--------------------------------------|


                      |--3--| |--3--|                        |--3--| |--3--|  
  E  E  S S S S E  E  S  S  S S  S  S    E  E  S S S S E  E  S  S  S S  S  S  
--------------------------------------|--------------------------------------|
--------------------------------------|--------------------------------------|
--------8-8-8---------5h-7p-5-3h-5p-3-|--------8-8-8---------5h-7p-5-3h-5p-3-|
--5--5--------5-L--5------------------|--5--5--------5-L--5------------------|
--------------------------------------|--------------------------------------|
--------------------------------------|--------------------------------------|


                      |--3--| |--3--|                        |--3--| |--3--|  
  E  E  S S S S E  E  S  S  S S  S  S    E  E  S S S S E  E  S  S  S S  S  S  
--------------------------------------|--------------------------------------|
--------------------------------------|--------------------------------------|
--------8-8-8---------5h-7p-5-3h-5p-3-|--------8-8-8---------5h-7p-5-3h-5p-3-|
--5--5--------5-L--5------------------|--5--5--------5-L--5------------------|
--------------------------------------|--------------------------------------|
--------------------------------------|--------------------------------------|


                      |--3--| |--3--|                        |--3--| |--3--|  
  E  E  S S S S E  E  S  S  S S  S  S    E  E  S S S S E  E  S  S  S S  S  S  
--------------------------------------|--------------------------------------|
--------------------------------------|--------------------------------------|
--------8-8-8---------5h-7p-5-3h-5p-3-|--------8-8-8---------5h-7p-5-3h-5p-3-|
--5--5--------5-L--5------------------|--5--5--------5-L--5------------------|
--------------------------------------|--------------------------------------|
--------------------------------------|--------------------------------------|


  Q    Q    E   E     Q    Q    E   E     Q    Q    E   E   
-------------------|-------------------|-------------------|
-------------------|-------------------|-------------------|
-------2----0h--2--|-------2----0h--2--|-------2----0h--2--|
-------------------|-------------------|-------------------|
-------------------|-------------------|-------------------|
--5----------------|--5----------------|--5----------------|


  Q    E  E  E   E     Q    Q    E   E     Q    Q    E   E   
--------------------|-------------------|-------------------|
--------------------|-------------------|-------------------|
-------0-----2p--0--|-------2----0h--2--|-------2----0h--2--|
----------3---------|-------------------|-------------------|
--------------------|-------------------|-------------------|
--1-----------------|--5----------------|--5----------------|


  Q    Q    E   E     Q    E  E  E   E     Q    E  E  E  E   
-------------------|--------------------|-------------------|
-------------------|--------------------|-------------------|
-------2----0h--2--|-------0-----2p--0--|-------------------|
-------------------|----------3---------|--5----5--5--5--5--|
-------------------|--------------------|--5----5--5--5--5--|
--5----------------|--1-----------------|--5----5--5--5--5--|


  Q    E  E  E  E     Q    E  E  E  E     Q    E  E  E  E     Q    E  E  E  E   
-------------------|-------------------|-------------------|-------------------|
-------------------|-------------------|-------------------|-------------------|
-------------------|--5----5--5--5--5--|--5----5--5--5--5--|-------------------|
--1----1--1--1--1--|--3----3--3--3--3--|--3----3--3--3--3--|--1----1--1--1--1--|
--1----1--1--1--1--|--3----3--3--3--3--|--3----3--3--3--3--|--1----1--1--1--1--|
--1----1--1--1--1--|-------------------|-------------------|--1----1--1--1--1--|


  Q    E  E  E  E     E  E  E  E  E  E     E  E  E  E  E  E   
-------------------|--------------------|--------------------|
-------------------|--------------------|--------------------|
-------------------|--------------------|--------------------|
--1----1--1--1--1--|--0--0--0--8--8--8--|--0--0--0--7--7--7--|
--1----1--1--1--1--|--0--0--0-----------|--0--0--0-----------|
--1----1--1--1--1--|--0--0--0-----------|--0--0--0-----------|


  Q    E  E  E  E     Q    E  E  E  E     Q    E  E  E  E     Q    E  E  E  E   
-------------------|-------------------|-------------------|-------------------|
-------------------|-------------------|-------------------|-------------------|
-------------------|-------------------|--5----5--5--5--5--|--5----5--5--5--5--|
--5----5--5--5--5--|--1----1--1--1--1--|--3----3--3--3--3--|--3----3--3--3--3--|
--5----5--5--5--5--|--1----1--1--1--1--|--3----3--3--3--3--|--3----3--3--3--3--|
--5----5--5--5--5--|--1----1--1--1--1--|-------------------|-------------------|


  Q    E  E  E  E     Q    E  E  E  E     E  E  E  E  E  E   
-------------------|-------------------|--------------------|
-------------------|-------------------|--------------------|
-------------------|-------------------|--------------------|
--1----1--1--1--1--|--1----1--1--1--1--|--0--0--0--8--8--8--|
--1----1--1--1--1--|--1----1--1--1--1--|--0--0--0-----------|
--1----1--1--1--1--|--1----1--1--1--1--|--0--0--0-----------|


  E  E  E  E  E  E     E  E  E  E  E  E     E  E  E  E  E  E   
--------------------|--------------------|--------------------|
--------------------|--------------------|--------------------|
--------------------|--7--7--7--7--7--7--|--7--7--7--7--7--7--|
--0--0--0--7--7--7--|--x--x--x--x--x--x--|--x--x--x--x--x--x--|
--0--0--0-----------|--5--5--5--5--5--5--|--5--5--5--5--5--5--|
--0--0--0-----------|--------------------|--------------------|


   E  E   E  E   E  E     E  E  E  E  E  E     E  E  E  E  E  E   
-----------------------|--------------------|--------------------|
------8------8------8--|-----6-----6-----6--|--------------------|
--10-----10-----10-----|--8-----8-----8-----|--7--7--7--7--7--7--|
-----------------------|--------------------|--x--x--x--x--x--x--|
-----------------------|--------------------|--5--5--5--5--5--5--|
-----------------------|--------------------|--------------------|


  E  E  E  E  E  E     E  E  E  E  E  E     E  E  E  E  E  E   
--------------------|--------------------|--------------------|
--------------------|--------------------|--------------------|
--7--7--7--7--7--7--|--7--7--7--7--7--7--|--7--7--7--7--7--7--|
--x--x--x--x--x--x--|--x--x--x--x--x--x--|--x--x--x--x--x--x--|
--5--5--5--5--5--5--|--5--5--5--5--5--5--|--5--5--5--5--5--5--|
--------------------|--------------------|--------------------|


  E  E  E  E  E  E     E  E  E  E  E  E     E  E  E  E  E  E   
--------------------|--------------------|--------------------|
--------------------|--------------------|--------------------|
--3--3--3--3--3--3--|--3--3--3--3--3--3--|--3--3--3--3--3--3--|
--x--x--x--x--x--x--|--x--x--x--x--x--x--|--x--x--x--x--x--x--|
--1--1--1--1--1--1--|--1--1--1--1--1--1--|--1--1--1--1--1--1--|
--------------------|--------------------|--------------------|


  E  E  E  E  E  E     E  E  E  E  E  E     E  E  E  E  E  E   
--------------------|--------------------|--------------------|
--------------------|--------------------|--------------------|
--3--3--3--3--3--3--|--7--7--7--7--7--7--|--7--7--7--7--7--7--|
--x--x--x--x--x--x--|--x--x--x--x--x--x--|--x--x--x--x--x--x--|
--1--1--1--1--1--1--|--5--5--5--5--5--5--|--5--5--5--5--5--5--|
--------------------|--------------------|--------------------|


  E  E  E  E  E  E     E  E  E  E  E  E     E  E  E  E  E  E   
--------------------|--------------------|--------------------|
--------------------|--------------------|--------------------|
--7--7--7--7--7--7--|--7--7--7--7--7--7--|--3--3--3--3--3--3--|
--x--x--x--x--x--x--|--x--x--x--x--x--x--|--x--x--x--x--x--x--|
--5--5--5--5--5--5--|--5--5--5--5--5--5--|--1--1--1--1--1--1--|
--------------------|--------------------|--------------------|


  E  E  E  E  E  E     E  E  E  E  E  E     E  E  E  E  E  E   
--------------------|--------------------|--------------------|
--------------------|--------------------|--------------------|
--3--3--3--3--3--3--|--3--3--3--3--3--3--|--3--3--3--3--3--3--|
--x--x--x--x--x--x--|--x--x--x--x--x--x--|--x--x--x--x--x--x--|
--1--1--1--1--1--1--|--1--1--1--1--1--1--|--1--1--1--1--1--1--|
--------------------|--------------------|--------------------|


  E  E  E  E  E  E     E  E  E  E  E  E     E  E  E  E  E  E   
--------------------|--------------------|--------------------|
--------------------|--------------------|--------------------|
--7--7--7--7--7--7--|--7--7--7--7--7--7--|--7--7--7--7--7--7--|
--x--x--x--x--x--x--|--x--x--x--x--x--x--|--x--x--x--x--x--x--|
--5--5--5--5--5--5--|--5--5--5--5--5--5--|--5--5--5--5--5--5--|
--------------------|--------------------|--------------------|


  E  E  E  E  E  E     E  E  E  E  E  E     E  E  E  E  E  E   
--------------------|--------------------|--------------------|
--------------------|--------------------|--------------------|
--7--7--7--7--7--7--|--3--3--3--3--3--3--|--3--3--3--3--3--3--|
--x--x--x--x--x--x--|--x--x--x--x--x--x--|--x--x--x--x--x--x--|
--5--5--5--5--5--5--|--1--1--1--1--1--1--|--1--1--1--1--1--1--|
--------------------|--------------------|--------------------|


  E  E  E  E  E  E     E  E  E  E  E  E     E  E  E  E  E  E   
--------------------|--------------------|--------------------|
--------------------|--------------------|--------------------|
--3--3--3--3--3--3--|--3--3--3--3--3--3--|--7--7--7--7--7--7--|
--x--x--x--x--x--x--|--x--x--x--x--x--x--|--x--x--x--x--x--x--|
--1--1--1--1--1--1--|--1--1--1--1--1--1--|--5--5--5--5--5--5--|
--------------------|--------------------|--------------------|


  E  E  E  E  E  E     E  E  E  E  E  E     E  E  E  E  E  E   
--------------------|--------------------|--------------------|
--------------------|--------------------|--------------------|
--7--7--7--7--7--7--|--7--7--7--7--7--7--|--7--7--7--7--7--7--|
--x--x--x--x--x--x--|--x--x--x--x--x--x--|--x--x--x--x--x--x--|
--5--5--5--5--5--5--|--5--5--5--5--5--5--|--5--5--5--5--5--5--|
--------------------|--------------------|--------------------|


  E  E  E  E  E  E     E  E  E  E  E  E     E  E  E  E  E  E   
--------------------|--------------------|--------------------|
--------------------|--------------------|--------------------|
--3--3--3--3--3--3--|--3--3--3--3--3--3--|--3--3--3--3--3--3--|
--x--x--x--x--x--x--|--x--x--x--x--x--x--|--x--x--x--x--x--x--|
--1--1--1--1--1--1--|--1--1--1--1--1--1--|--1--1--1--1--1--1--|
--------------------|--------------------|--------------------|


  E  E  E  E  E  E     Q    Q    E   E     Q    Q    E   E   
--------------------|-------------------|-------------------|
--------------------|-------------------|-------------------|
--3--3--3--3--3--3--|-------2----0h--2--|-------2----0h--2--|
--x--x--x--x--x--x--|-------------------|-------------------|
--1--1--1--1--1--1--|-------------------|-------------------|
--------------------|--5----------------|--5----------------|


  Q    Q    E   E     Q    E  E  E  E                 E    E   E  E    E  E   
-------------------|-------------------|-----|-----|----------10----------8--|
-------------------|-------------------|-----|-----|--8h--10-----------------|
-------2----0h--2--|-------------0-----|-----|-----|--------------8h--10-----|
-------------------|-------3--------3--|-----|-----|-------------------------|
-------------------|-------------------|-----|-----|-------------------------|
--5----------------|--1-------1--------|-----|-----|-------------------------|


  E    E   Q      Q       Q    Q    E   E     Q    Q    E   E   
-----------------------|-------------------|-------------------|
----------10br----L----|-------------------|-------------------|
--8h--10---------------|-------2----0h--2--|-------2----0h--2--|
-----------------------|-------------------|-------------------|
-----------------------|-------------------|-------------------|
-----------------------|--5----------------|--5----------------|


  Q    Q    E   E     Q    E  E  E  E                 E    E   E  E    E  E   
-------------------|-------------------|-----|-----|----------10----------8--|
-------------------|-------------------|-----|-----|--8h--10-----------------|
-------2----0h--2--|-------------0-----|-----|-----|--------------8h--10-----|
-------------------|-------3--------3--|-----|-----|-------------------------|
-------------------|-------------------|-----|-----|-------------------------|
--5----------------|--1-------1--------|-----|-----|-------------------------|


  E    E   Q      Q       Q    Q    E   E     Q    Q    E   E   
-----------------------|-------------------|-------------------|
----------10br----L----|-------------------|-------------------|
--8h--10---------------|-------2----0h--2--|-------2----0h--2--|
-----------------------|-------------------|-------------------|
-----------------------|-------------------|-------------------|
-----------------------|--5----------------|--5----------------|


  Q    Q    E   E     Q    E  E  E  E                 E    E   E  E    E  E   
-------------------|-------------------|-----|-----|----------10----------8--|
-------------------|-------------------|-----|-----|--8h--10-----------------|
-------2----0h--2--|-------------0-----|-----|-----|--------------8h--10-----|
-------------------|-------3--------3--|-----|-----|-------------------------|
-------------------|-------------------|-----|-----|-------------------------|
--5----------------|--1-------1--------|-----|-----|-------------------------|


  E    E   Q      Q       E  E  E  E  E  E     E  H        E   
-----------------------|--------------------|-----------------|
----------10br----L----|--------------------|-----------------|
--8h--10---------------|--------------------|-----------------|
-----------------------|--5--5--5--5--5--5--|--5--------------|
-----------------------|--5--5--5--5--5--5--|--5--------------|
-----------------------|--5--5--5--5--5--5--|--5--------------|


  E  E  E  E  E  E     E  E  H           E  E  E  E  E  E     E  E  H         
--------------------|-----------------|--------------------|-----------------|
--------------------|-----------------|--------------------|-----------------|
--------------------|-----------------|--------------------|-----------------|
--5--5--5--5--5--5--|--5--------------|--5--5--5--5--5--5--|--5--------------|
--5--5--5--5--5--5--|--5--------------|--5--5--5--5--5--5--|--5--------------|
--5--5--5--5--5--5--|--5--------------|--5--5--5--5--5--5--|--5--------------|


  E  E  E  E  E  E     E  E  E  E  E  E     Q    E  E  E  E   
--------------------|--------------------|-------------------|
--------------------|--------------------|-------------------|
--------------------|--------------------|-------------------|
--5--5--5--5--5--5--|--5--5--5--5--5--5--|--5----5--5--5--5--|
--5--5--5--5--5--5--|--5--5--5--5--5--5--|--5----5--5--5--5--|
--5--5--5--5--5--5--|--5--5--5--5--5--5--|--5----5--5--5--5--|


  Q    E  E  E  E     Q    E  E  E  E     Q    E  E  E  E     Q    E  E  E  E   
-------------------|-------------------|-------------------|-------------------|
-------------------|-------------------|-------------------|-------------------|
-------------------|--5----5--5--5--5--|--5----5--5--5--5--|-------------------|
--1----1--1--1--1--|--3----3--3--3--3--|--3----3--3--3--3--|--1----1--1--1--1--|
--1----1--1--1--1--|--3----3--3--3--3--|--3----3--3--3--3--|--1----1--1--1--1--|
--1----1--1--1--1--|-------------------|-------------------|--1----1--1--1--1--|


  Q    E  E  E  E     E  E  E  E  E  E     E  E  E  E  E  E   
-------------------|--------------------|--------------------|
-------------------|--------------------|--------------------|
-------------------|--------------------|--------------------|
--1----1--1--1--1--|--0--0--0--8--8--8--|--0--0--0--7--7--7--|
--1----1--1--1--1--|--0--0--0-----------|--0--0--0-----------|
--1----1--1--1--1--|--0--0--0-----------|--0--0--0-----------|


  Q    E  E  E  E     Q    E  E  E  E     Q    E  E  E  E     Q    E  E  E  E   
-------------------|-------------------|-------------------|-------------------|
-------------------|-------------------|-------------------|-------------------|
-------------------|-------------------|--5----5--5--5--5--|--5----5--5--5--5--|
--5----5--5--5--5--|--1----1--1--1--1--|--3----3--3--3--3--|--3----3--3--3--3--|
--5----5--5--5--5--|--1----1--1--1--1--|--3----3--3--3--3--|--3----3--3--3--3--|
--5----5--5--5--5--|--1----1--1--1--1--|-------------------|-------------------|


  Q    E  E  E  E     Q    E  E  E  E     E  E  E  E  E  E   
-------------------|-------------------|--------------------|
-------------------|-------------------|--------------------|
-------------------|-------------------|--------------------|
--1----1--1--1--1--|--1----1--1--1--1--|--0--0--0--8--8--8--|
--1----1--1--1--1--|--1----1--1--1--1--|--0--0--0-----------|
--1----1--1--1--1--|--1----1--1--1--1--|--0--0--0-----------|


  E  E  E  E  E  E     E  E  E  E  E  E     E  E  E  E  E  E   
--------------------|--------------------|--------------------|
--------------------|--------------------|--------------------|
--------------------|--------------------|--------------------|
--0--0--0--7--7--7--|--5--5--5--5--5--5--|--1--1--1--1--1--1--|
--0--0--0-----------|--5--5--5--5--5--5--|--1--1--1--1--1--1--|
--0--0--0-----------|--5--5--5--5--5--5--|--1--1--1--1--1--1--|


  E  E  E  E  E  E     E  E  E  E  E  E     E  E  E  E  E  E   
--------------------|--------------------|--------------------|
--------------------|--------------------|--------------------|
--5--5--5--5--5--5--|--5--5--5--5--5--5--|--------------------|
--3--3--3--3--3--3--|--3--3--3--3--3--3--|--1--1--1--1--1--1--|
--3--3--3--3--3--3--|--3--3--3--3--3--3--|--1--1--1--1--1--1--|
--------------------|--------------------|--1--1--1--1--1--1--|


  E  E  E  E  E  E     E  E  E  E  E  E     E  E  E  E  E  E   
--------------------|--------------------|--------------------|
--------------------|--------------------|--------------------|
--------------------|--------------------|--------------------|
--1--1--1--1--1--1--|--0--0--0--8--8--8--|--0--0--0--7--7--7--|
--1--1--1--1--1--1--|--0--0--0-----------|--0--0--0-----------|
--1--1--1--1--1--1--|--0--0--0-----------|--0--0--0-----------|


  E  E  E  E  E  E     E  E  E  E  E  E     E  E  E  E  E  E   
--------------------|--------------------|--------------------|
--------------------|--------------------|--------------------|
--------------------|--------------------|--5--5--5--5--5--5--|
--5--5--5--5--5--5--|--1--1--1--1--1--1--|--3--3--3--3--3--3--|
--5--5--5--5--5--5--|--1--1--1--1--1--1--|--3--3--3--3--3--3--|
--5--5--5--5--5--5--|--1--1--1--1--1--1--|--------------------|


  E  E  E  E  E  E     E  E  E  E  E  E     E  E  E  E  E  E   
--------------------|--------------------|--------------------|
--------------------|--------------------|--------------------|
--5--5--5--5--5--5--|--------------------|--------------------|
--3--3--3--3--3--3--|--1--1--1--1--1--1--|--1--1--1--1--1--1--|
--3--3--3--3--3--3--|--1--1--1--1--1--1--|--1--1--1--1--1--1--|
--------------------|--1--1--1--1--1--1--|--1--1--1--1--1--1--|


  E  E  E  E  E  E     E  E  E  E  E  E     E  E  E  E  E  E   
--------------------|--------------------|--------------------|
--------------------|--------------------|--------------------|
--------------------|--------------------|--------------------|
--0--0--0--8--8--8--|--0--0--0--7--7--7--|--0--0--0--8--8--8--|
--0--0--0-----------|--0--0--0-----------|--0--0--0-----------|
--0--0--0-----------|--0--0--0-----------|--0--0--0-----------|


  E  E  E  E  E  E     E  E  E  E  E  E     E  E  E  E  E  E   
--------------------|--5--5--5--5--5--5--|--5--5--5--5--5--5--|
--------------------|--3--3--3--3--3--3--|--3--3--3--3--3--3--|
--------------------|--------------------|--------------------|
--0--0--0--7--7--7--|--------------------|--------------------|
--0--0--0-----------|--------------------|--------------------|
--0--0--0-----------|--------------------|--------------------|


  E  E  E  E  E  E     E  E  E  E  E  E     E  E  E  E  E  E   
--5--5--5--5--5--5--|--5--5--5--5--5--5--|--5--5--5--5--5--5--|
--3--3--3--3--3--3--|--3--3--3--3--3-----|--3--3--3--3--3--3--|
--------------------|--------------------|--------------------|
--------------------|--------------------|--------------------|
--------------------|--------------------|--------------------|
--------------------|--------------------|--------------------|


  E  E  E  E  E  E     E  E  E  E  E  E     E  E  E  E  E  E   
--5--5--5--5--5--5--|--5--5--5--5--5--5--|--5--5--5--5--5--5--|
--3--3--3--3--3--3--|--3--3--3--3--3--3--|--3--3--3--3--3--3--|
--------------------|--------------------|--------------------|
--------------------|--------------------|--------------------|
--------------------|--------------------|--------------------|
--------------------|--------------------|--------------------|


  E  E  E  E  E  E     E  E  E  E  E  E     E  E  E  E  E  E   
--5--5--5--5--5--5--|--5--5--5--5--5--5--|--5--5--5--5--5--5--|
--3--3--3--3--3--3--|--3--3--3--3--3--3--|--3--3--3--3--3--3--|
--------------------|--------------------|--------------------|
--------------------|--------------------|--------------------|
--------------------|--------------------|--------------------|
--------------------|--------------------|--------------------|


  E  E  E  E  E  E     E  E  E  E  E  E     E  E  E  E  E  E   
--5--5--5--5--5--5--|--5--5--5--5--5--5--|--5--5--5--5--5--5--|
--3--3--3--3--3--3--|--3--3--3--3--3--3--|--3--3--3--3--3--3--|
--------------------|--------------------|--------------------|
--------------------|--------------------|--------------------|
--------------------|--------------------|--------------------|
--------------------|--------------------|--------------------|


  E  E  E  E  E  E     E  E  E  E  E  E     E  E  E  E  E  E   
--5--5--5--5--5--5--|--5--5--5--5--5--5--|--5--5--5--5--5--5--|
--3--3--3--3--3--3--|--3--3--3--3--3--3--|--3--3--3--3--3--3--|
--------------------|--------------------|--------------------|
--------------------|--------------------|--------------------|
--------------------|--------------------|--------------------|
--------------------|--------------------|--------------------|


  E  E  E  E  E  E     E  E  E  E  E  E     E  E  E  E  E  E   
--5--5--5--5--5--5--|--5--5--5--5--5--5--|--5--5--5--5--5--5--|
--3--3--3--3--3--3--|--3--3--3--3--3--3--|--3--3--3--3--3--3--|
--------------------|--------------------|--------------------|
--------------------|--------------------|--------------------|
--------------------|--------------------|--------------------|
--------------------|--------------------|--------------------|


  E  E  E  E  E  E     E  E  E  E  E  E     E  E  E  E  E  E   
--5--5--5--5--5--5--|--5--5--5--5--5--5--|--5--5--5--5--5--5--|
--3--3--3--3--3--3--|--3--3--3--3--3--3--|--3--3--3--3--3--3--|
--------------------|--------------------|--------------------|
--------------------|--------------------|--------------------|
--------------------|--------------------|--------------------|
--------------------|--------------------|--------------------|


  E  E  E  E  E  E     E  E  E  E  E  E     E  E  E  E  E  E   
--5--5--5--5--5--5--|--5--5--5--5--5--5--|--5--5--5--5--5--5--|
--3--3--3--3--3--3--|--3--3--3--3--3--3--|--3--3--3--3--3--3--|
--------------------|--------------------|--------------------|
--------------------|--------------------|--------------------|
--------------------|--------------------|--------------------|
--------------------|--------------------|--------------------|


  E  E  E  E  E  E     E  E  E  E  E  E     E  E  E  E  E  E   
--5--5--5--5--5--5--|--5--5--5--5--5--5--|--5--5--5--5--5--5--|
--3--3--3--3--3--3--|--3--3--3--3--3--3--|--3--3--3--3--3--3--|
--------------------|--------------------|--------------------|
--------------------|--------------------|--------------------|
--------------------|--------------------|--------------------|
--------------------|--------------------|--------------------|


  E  E  E  E  E  E     E  E  E  E  E  E     E  E  E  E  E  E   
--5--5--5--5--5--5--|--5--5--5--5--5--5--|--5--5--5--5--5--5--|
--3--3--3--3--3--3--|--3--3--3--3--3--3--|--3--3--3--3--3--3--|
--------------------|--------------------|--------------------|
--------------------|--------------------|--------------------|
--------------------|--------------------|--------------------|
--------------------|--------------------|--------------------|


  E  E  E  E  E  E     E  E  E  E  E  E     E  E  E  E  E  E   
--5--5--5--5--5--5--|--5--5--5--5--5--5--|--5--5--5--5--5--5--|
--3--3--3--3--3--3--|--3--3--3--3--3--3--|--3--3--3--3--3--3--|
--------------------|--------------------|--------------------|
--------------------|--------------------|--------------------|
--------------------|--------------------|--------------------|
--------------------|--------------------|--------------------|


  E  E  E  E  E  E     E  E  E  E  E  E     E  E  E  E  E  E   
--5--5--5--5--5--5--|--5--5--5--5--5--5--|--5--5--5--5--5--5--|
--3--3--3--3--3--3--|--3--3--3--3--3--3--|--3--3--3--3--3--3--|
--------------------|--------------------|--------------------|
--------------------|--------------------|--------------------|
--------------------|--------------------|--------------------|
--------------------|--------------------|--------------------|


  E  E  E  E  E  E     E  E  E  E  E  E     E  E  E  E  E  E   
--5--5--5--5--5--5--|--5--5--5--5--5--5--|--5--5--5--5--5--5--|
--3--3--3--3--3--3--|--3--3--3--3--3--3--|--3--3--3--3--3--3--|
--------------------|--------------------|--------------------|
--------------------|--------------------|--------------------|
--------------------|--------------------|--------------------|
--------------------|--------------------|--------------------|


  E  E  E  E  E  E     E  E  E  E  E  E     E  E  E  E  E  E   
--5--5--5--5--5--5--|--5--5--5--5--5--5--|--5--5--5--5--5--5--|
--3--3--3--3--3--3--|--3--3--3--3--3--3--|--3--3--3--3--3--3--|
--------------------|--------------------|--------------------|
--------------------|--------------------|--------------------|
--------------------|--------------------|--------------------|
--------------------|--------------------|--------------------|


  E  E  E  E  E  E     E  E  E  E  E  E     E  E  E  E  E  E   
--5--5--5--5--5--5--|--5--5--5--5--5--5--|--5--5--5--5--5--5--|
--3--3--3--3--3--3--|--3--3--3--3--3--3--|--3--3--3--3--3--3--|
--------------------|--------------------|--------------------|
--------------------|--------------------|--------------------|
--------------------|--------------------|--------------------|
--------------------|--------------------|--------------------|


  E  E  E  E  E  E     E  E  E  E  E  E     E  E  E  E  E  E   
--5--5--5--5--5--5--|--5--5--5--5--5--5--|--5--5--5--5--5--5--|
--3--3--3--3--3--3--|--3--3--3--3--3--3--|--3--3--3--3--3--3--|
--------------------|--------------------|--------------------|
--------------------|--------------------|--------------------|
--------------------|--------------------|--------------------|
--------------------|--------------------|--------------------|


  E  E  E  E  E  E     E  E  E  E  E  E     E  E  E  E  E  E   
--5--5--5--5--5--5--|--5--5--5--5--5--5--|--5--5--5--5--5--5--|
--3--3--3--3--3--3--|--3--3--3--3--3--3--|--3--3--3--3--3--3--|
--------------------|--------------------|--------------------|
--------------------|--------------------|--------------------|
--------------------|--------------------|--------------------|
--------------------|--------------------|--------------------|


  E  E  E  E  E  E     E  E  E  E  E  E     E  E  E  E  E  E   
--5--5--5--5--5--5--|--5--5--5--5--5--5--|--5--5--5--5--5--5--|
--3--3--3--3--3--3--|--3--3--3--3--3--3--|--3--3--3--3--3--3--|
--------------------|--------------------|--------------------|
--------------------|--------------------|--------------------|
--------------------|--------------------|--------------------|
--------------------|--------------------|--------------------|


  E  E  E  E  E  E     E  E  E  E  E  E     E  E  E  E  E  E   
--5--5--5--5--5--5--|--5--5--5--5--5--5--|--5--5--5--5--5--5--|
--3--3--3--3--3--3--|--3--3--3--3--3--3--|--3--3--3--3--3--3--|
--------------------|--------------------|--------------------|
--------------------|--------------------|--------------------|
--------------------|--------------------|--------------------|
--------------------|--------------------|--------------------|


  E  E  E  E  E  E     E  E  E  E  E  E     E  E  E  E  E  E   
--5--5--5--5--5--5--|--5--5--5--5--5--5--|--5--5--5--5--5--5--|
--3--3--3--3--3--3--|--3--3--3--3--3--3--|--3--3--3--3--3--3--|
--------------------|--------------------|--------------------|
--------------------|--------------------|--------------------|
--------------------|--------------------|--------------------|
--------------------|--------------------|--------------------|


  E  E  E  E  E  E     E  E  E  E  E  E     E  E  E  E  E  E   
--5--5--5--5--5--5--|--5--5--5--5--5--5--|--5--5--5--5--5--5--|
--3--3--3--3--3--3--|--3--3--3--3--3--3--|--3--3--3--3--3--3--|
--------------------|--------------------|--------------------|
--------------------|--------------------|--------------------|
--------------------|--------------------|--------------------|
--------------------|--------------------|--------------------|


  E  E  E  E  E  E     E  E  E  E  E  E     E  E  E  E  E  E   
--5--5--5--5--5--5--|--5--5--5--5--5--5--|--5--5--5--5--5--5--|
--3--3--3--3--3--3--|--3--3--3--3--3--3--|--3--3--3--3--3--3--|
--------------------|--------------------|--------------------|
--------------------|--------------------|--------------------|
--------------------|--------------------|--------------------|
--------------------|--------------------|--------------------|


  E  E  E  E  E  E     E  E  E  E  E  E     E  E  E  E  E  E   
--5--5--5--5--5--5--|--5--5--5--5--5--5--|--5--5--5--5--5--5--|
--3--3--3--3--3--3--|--3--3--3--3--3--3--|--3--3--3--3--3--3--|
--------------------|--------------------|--------------------|
--------------------|--------------------|--------------------|
--------------------|--------------------|--------------------|
--------------------|--------------------|--------------------|


  E  E  E  E  E  E    
--5--5--5--5--5--5--||
--3--3--3--3--3--3--||
--------------------||
--------------------||
--------------------||
--------------------||




Duration Legend
---------------
W - whole
H - half
Q - quarter
E - 8th
S - 16th
T - 32nd
X - 64th
. - note dotted
|-n-|  - n-tuplets


Tablature Legend
----------------
L - tied note
x - dead note
g - grace note
(n) - ghost note
> - accentuded note
NH - natural harmonic
AH - artificial harmonic
TH - tapped harmonic
SH - semi harmonic
PH - pitch harmonic
h - hammer on
p - pull off
b - bend
br - bendRelease
pb - preBend
pbr - preBendRelease
brb - bendReleaseBend
\n/ - tremolo bar dip
\n - tremolo bar dive
-/n - tremolo bar Release up
/n\ - tremolo bar inverted dip
/n - tremolo bar return
-\n - tremolo bar Release down
S - shift slide
s - legato slide
/ -  slide into from below or out of upwards
\ -  slide into from above or out of downwards
~ - vibrato
W - wide vibrato
tr - trill
TP - tremolo picking
T - tapping
S - slap
P - pop
< - fade in
^ - brush up
v - brush down

            
            
Suggest correction
Creating personal tab
Creating personal tab
You can edit any tab online and save it as your Personal.

You can edit, replace or remove any tab part or add personal notes – all changes will be seen only by you.

Personal tabs can be accessed anytime from any device, even offline.
Learn more »
Give kudos to tab author, rate the tab!
1 2 3 4 5
comments
print report bad tab
guest
You may want to rate the tab now too:
select rating
Wanna post a correction for this tab? Suggest correction