Oops, an error
Loading. Please wait.

We Follow tab

868 views 9 this week
2 commentsread comments
1 2 3 4 5
x 3
add to favorites
×
Save as Personal and add changes to this tab that will be seen only by you. Learn more ›
×
You can save this tab as Personal to edit and correct it or add notes. All changes will be seen only by you. Learn more »
launch autoscroll
font size
0
reset
how to read this tab
guitar tuner
edit
Autoscroll
slow
fast
+/-
esc
set tempo
stop
Author
Difficulty
Took hours to complete this. If you have any corrections please comment below!

Intro: "I took my time..."
E|--------------------------------------------------------------------------------------|
B|-----------------------------------------------------------9--------9--------9--------|
G|-----------------------------4--------4--------6-----6--------6--------6--------------|
D|-------------2------------4-----6--------6--9-----9-----9--------9--------9-----------| x4
A|-----2h4--------4--2/4h7-----------7--------------------------------------------------|
E|--2-------2---------------------------------------------------------------------0h----|

E|--------------------------------------------------------------------------------------|
B|--------------------------------------------------------------------------------------|
G|--------------------------------------------------------------------------------------|
D|--------2--------------------------2--------------------------------------------------| x2
A|-----------4--0--2--4--2--------------4--0--2--4--------------------------------------|
E|--0--2-----------------------0--2-----------------4-----------------------------------|

Verse 1: "I took them down..."
E|--------------------------|
B|--------------------------|
G|-----6-----------6--------|
D|--4--6--7-----4--6--7-----| 
A|--4--4--7-----4--4--7-----|
E|--2-----5-----2-----5-----|

"And if I never..."
E|--------------------------------------------------------------------------------------|
B|-----------------------------------------------------------9--------9--------9--------|
G|-----------------------------4--------4--------6-----6--------6--------6--------------|
D|-------------2------------4-----6--------6--9-----9-----9--------9--------9-----------| x2
A|-----2h4--------4--2/4h7-----------7--------------------------------------------------|
E|--2-------2---------------------------------------------------------------------0h----|

E|-----------------------------------------     ----------------------------7-----------|
B|----------------------5------------------     -------------5-----------5-----5--------|
G|-------------6-----------6-----4--6------     -----4/6--------6--4--------------4-----|
D|----------------9--6--------7------------ x2  --0-------0-----------0-----------------|
A|-----7/9---------------------------------     ----------------------------------------|
E|--5-------5------------------------------     ----------------------------------------|

E|-----------------------------------------     ----------------------------7-----------|
B|----------------------5------------------     -------------5-----------5-----5--------|
G|-------------6-----------6-----4--6------     -----4/6--------6--4--------------4-----|
D|----------------9--6--------7------------ x2  --0-------0-----------0-----------------|
A|-----7/9---------------------------------     ----------------------------------------|
E|--5-------5------------------------------     ----------------------------------------|

"And I guess my time..."
E|--------------------------------------------------------------------------------------|
B|--------------------------------------------------------------------------------------|
G|--------------------------------------------------------------------------------------|
D|--------2-----------------------------------------------2-----------------------------| x2
A|-----------4--0--2--4--2-----4-4-4-4-4-4-4-----------------4--0--2--4-----------------|
E|--0--2--------------------------------------------0--2-----------------4--------------|

E|--------------------------------------------------------------------------------------|
B|--------------------------------------------------------------------------------------|
G|--4--x-4-4--4-x-x-x-x-x-x-x-x-4--x-4-4--4-x-x-x-x-x-----------------------------------|
D|--4--x-4-4--4-x-x-x-x-x-x-x-x-4--x-4-4--4-x-x-x-x-x-7\4--------2/4--------4-----------|
A|--2--x-2-2--2-x-x-x-x-x-x-x-x-2--x-2-2--2-x-x-x-x-x-7\4--------2/4--------4-----------|
E|----------------------------------------------------5\2--------0/2--------2-----------|

Solo
E|--------------------------------------------------------------------------------------|
B|--------------------------------------------------------------------------------------|
G|--13-13-13----------------------------------------------------------------------------|
D|-----------14-14-14-12-12-11-11-11----------------------------------------------------|
A|-----------------------------------12-12-12-11-11-9-9-9-------------------------------|
E|--------------------------------------------------------12-12-12-9-10-9-9-9-5-5-5-5-5-|

E|--------------------------------------------------------------------------------------|
B|--------------------------------------------------------------------------------------|
G|----------------------------------6-6-6-------6-6-------------------------------------|
D|--6-6-6-----------4-4-4-----------------7-7-7-----------------------------------------|
A|--------7-7-7-7-7-------5-5-5-5-5-------------------9-9-9-9-7-------------------------|
E|--------------------------------------------------------------9-----------------------|

E|--------------------------------------------------------------------------------------|
B|--------------------------------------------------------------------------------------|
G|--13-13-13----------------------------------------------------------------------------|
D|-----------14-14-14-12-12-11-11-11----------------------------------------------------|
A|-----------------------------------12-12-12-11-11-9-9-9-------------------------------|
E|--------------------------------------------------------12-12-12-9-10-9-9-9-5-5-5-5-5-|

E|--------------------------------------------------------------------------------------|
B|--------------------------------------------------------------------------------------|
G|----------------------------------6-6-6-------6-6-------------------------------------|
D|--6-6-6-----------4-4-4-----------------7-7-7-----------------------------------------|
A|--------7-7-7-7-7-------5-5-5-5-5-----------------------------------------------------|
E|--------------------------------------------------------------------------------------|

"Some more, I would've loved some more..."
E|--------------------------------------------------------------------------------------|
B|--------------------------------------------------------------------------------------|
G|--4---4---4--4--4--4--4---4---4---4--4--4--4-4-4-4------------------------------------|
D|--4---4---4--4--4--4--4---4---4---4--4--4--4-4-4-4------------------------------------|
A|--2---2---2--2--2--2--2---2---2---2--2--2--2-2-2-2------------------------------------|
E|--------------------------------------------------------------------------------------|

"I though I knew you..."
E|-----------------------------------------     ----------------------------7-----------|
B|----------------------5------------------     -------------5-----------5-----5--------|
G|-------------6-----------6-----4--6------     -----4/6--------6--4--------------4-----|
D|----------------9--6--------7------------ x2  --0-------0-----------0-----------------|
A|-----7/9---------------------------------     ----------------------------------------|
E|--5-------5------------------------------     ----------------------------------------|

E|-----------------------------------------     ----------------------------7-----------|
B|----------------------5------------------     -------------5-----------5-----5--------|
G|-------------6-----------6-----4--6------     -----4/6--------6--4--------------4-----|
D|----------------9--6--------7------------ x2  --0-------0-----------0-----------------|
A|-----7/9---------------------------------     ----------------------------------------|
E|--5-------5------------------------------     ----------------------------------------|

E|-----------------------------------------     ----------------------------7-----------|
B|----------------------5------------------     -------------5-----------5-----5--------|
G|-------------6-----------6-----4--6------     -----4/6--------6--4--------------4-----|
D|----------------9--6--------7------------ x2  --0-------0-----------0-----------------|
A|-----7/9---------------------------------     ----------------------------------------|
E|--5-------5------------------------------     ----------------------------------------|

E|-----------------------------------------     ----------------------------------------|
B|----------------------5------------------     -------------5--------------------------|
G|-------------6-----------6-----4--6------     -----4/6--------6--4--------------------|
D|----------------9--6--------7------------ x2  --0-------0-----------------------------|
A|-----7/9---------------------------------     ----------------------------------------|
E|--5-------5------------------------------     ----------------------------------------|

A lot of strumming here so I didn't include the extra notes.
E|--------12--------------------------------12------------------------------------------|
B|------------14-----10--12--14--12-------------14-----10--12--10--9-----12-------------|
G|--9/11------------------------------9/11----------------------------------------------|
D|--------------------------------------------------------------------------------------|
A|--------------------------------------------------------------------------------------|
E|--------------------------------------------------------------------------------------|

E|--------12---------------------------------------12-----------------------------------|
B|------------14-----10--12--14--12-----14-------------14--10--12--10--9-----12b-12-----|
G|--9/11-------------------------------------9/11---------------------------------------|
D|--------------------------------------------------------------------------------------|
A|--------------------------------------------------------------------------------------|
E|--------------------------------------------------------------------------------------|

            
            
Suggest correction
Creating personal tab
Creating personal tab
You can edit any tab online and save it as your Personal.

You can edit, replace or remove any tab part or add personal notes – all changes will be seen only by you.

Personal tabs can be accessed anytime from any device, even offline.
Learn more »
Give kudos to tab author, rate the tab!
1 2 3 4 5
comments
print report bad tab
2 comments total.
0 reply
erikconnerty 10 Nov 04, 2015 07:16 PM

Thanks so much for working this out. I've been wanting to play this song for a while. However, I think in the verse the last chord in the progression should be an A5 instead of B5.

0 reply
alextaylorle 42 Apr 18, 2016 12:42 PM

fixed it just for you

guest
You may want to rate the tab now too:
select rating
Wanna post a correction for this tab? Suggest correction