Oops, an error
Loading. Please wait.

Runaway Return tab

by Fugazi
127 views 1 this week
no commentswrite comment
1 2 3 4 5
3 more votes to show rating
add to favorites
×
Save as Personal and add changes to this tab that will be seen only by you. Learn more ›
×
You can save this tab as Personal to edit and correct it or add notes. All changes will be seen only by you. Learn more »
launch autoscroll
font size
0
reset
how to read this tab
guitar tuner
edit
Autoscroll
slow
fast
+/-
esc
set tempo
stop
Author
Difficulty
-------------------------------------------------------------------------------
                            RUNAWAY RETURN - FUGAZI
-------------------------------------------------------------------------------
Tabbed by:Cowpatable


Tuning:Standard

************************************

| ()  ghost note
| x   Mute note
| b   Bend
| br  Bend release

************************************
_______________________________________________________________________________
INTRO/VERSE - Main riff
_______________________________________________________________________________

Guitar one and two                        |Guitar two only
                                       x4 |
e|-------|-------|-------|---------------||---------------||
B|-------|-------|-------|---------------||---------------||
G|-------|-------|-------|---------------||-3-xx3-x-3-xx3-||
D|-------|-------|-------|---------------||---------------||
A|-2-2-2-|-------|-2-2-2-|-----------0-0-||---------------||
E|-------|-2-2-2-|-------|-0-0-0-2-2-----||---------------||
_______________________________________________________________________________

Guitar one
                                                         x4
e|-------------|-------------|-------------|---------------||
B|-------------|-------------|-------------|---------------||
G|-------22222-|-------22222-|-------22222-|---------------||
D|-------------|-------------|-------------|---------------||
A|-2-2-2-------|-------------|-2-2-2-------|-----------0-0-||
E|-------------|-2-2-2-------|-------------|-0-0-0-2-2-----||

Guitar two
                                                             x4
e|-------------|-------------|-------------|-------------------||
B|-------------|-------------|-------------|-------------------||
G|-------22222-|-------22222-|-------22222-|(xx)-3-xx3-x-3-xx3-||
D|-------------|-------------|-------------|-------------------||
A|-2-2-2-------|-------------|-2-2-2-------|-------------------||
E|-------------|-2-2-2-------|-------------|-------------------||

_______________________________________________________________________________
CHORUS
_______________________________________________________________________________

Guitar one - Played loosely. Open strings are optional.

            1,2,3,5,6,7                4                                    8
e|-0-0-0-0-0-0---0-0---||-0-0-0-0-0-0-0-||-0-0-0-0-0-0-0-0-|-0---------------||
B|-0-0-0-0-0-0---0-0---||-0-0-0-0-0-0-0-||-0-0-0-0-0-0-0-0-|-0---------------||
G|-4-4-4-4-4-4b5r4-4b5r||-2-2-2-2-2-2-2-||-4-4-4-4-4-4-4-4-|-4---------------||
D|---------------------||---------------||-----------------|-----------------||
A|---------------------||---------------||-----------------|-------------0-0-||
E|---------------------||---------------||-----------------|---0-0-0-2-2-----||

Guitar two
                        1,2,3,5,6,7                                4
e|---------------------------------||-------------------------------||
B|---------------------------------||-------------------------------||
G|---------------------------------||-------------------------------||
D|---------------------------------||-------------------------------||
A|-2-2-2-------------5-5-5-5-5-4-4-||-2-2-2-------------7-7-5-5-0-0-||
E|-------2-2-2-0-0-0---------------||-------2-2-2-0-0-0-------------||
   pm=============================================================|
                                  8
 |---------------------------------||
 |---------------------------------||
 |---------------------------------||
 |---------------------------------||
 |-2-2-2-----------------------0-0-||
 |-------2-2-2-0-0-0-0-0-0-2-2-----||

_______________________________________________________________________________
BRIDGE
_______________________________________________________________________________

Guitar one
 
 First time (x8) x4                 x4
e|-----------------||-----------------||
B|-----------------||-----------------||
G|-4-4-4-4-4-4-4-4-||-----------------||
D|-----------------||-6-6-6-6-6-6-6-6-||
A|-----------------||-----------------||
E|-----------------||-----------------||

Guitar two

 First time (x8) x4                 x4
e|-----------------||-----------------||
B|-----------------||-----------------||
G|-----------------||-----------------||
D|-4-4-4-4-4-4-4-4-||-----------------||
A|-----------------||-2-2-2-2-2-2-2-2-||
E|-----------------||-----------------||

_______________________________________________________________________________
These are all the parts, listen for where they interlock.

            
            
Suggest correction
Creating personal tab
Creating personal tab
You can edit any tab online and save it as your Personal.

You can edit, replace or remove any tab part or add personal notes – all changes will be seen only by you.

Personal tabs can be accessed anytime from any device, even offline.
Learn more »
Give kudos to tab author, rate the tab!
1 2 3 4 5
comments
print report bad tab
guest
You may want to rate the tab now too:
select rating
Wanna post a correction for this tab? Suggest correction