Oops, an error
Loading. Please wait.

No Woman No Cry tab

version 1
version 1

Whole song

Interactive

by Fugees
11,556 views 6 this week
no commentswrite comment
1 2 3 4 5
x 3
add to favorites
×
Save as Personal and add changes to this tab that will be seen only by you. Learn more ›
×
You can save this tab as Personal to edit and correct it or add notes. All changes will be seen only by you. Learn more »
launch autoscroll
font size
0
reset
how to read this tab
guitar tuner
edit
Autoscroll
slow
fast
+/-
esc
set tempo
stop
NO WOMAN, NO CRY

FUGEES

THE SCORE

Tabbed by: Ivan Nanita Castillo



It is easier to play these tabs using the conventional hand position of the following 
chords: C G Am. These are the chords of the song as well.

------------------------------------------------------------------------------------------|
----------------------p1------------------P.M.3---------------------------p0--------------|
----------------------p0------------P.M.3---------------------------------p0--------------|
------------------------------------------------------------------------------------------|
----3-------------------------------------------------------------------------------------|
-------------------------------------------------------------------3----------------------|

-----------------------------------------------------------------------|
-------------------p1--------------------------------------------------|
-------------------p2--------------------------------------------------|
--------------------------------------0h2h3--3h2--2--------------------|
---2--3--0----------------------------------------------------------3--|
-----------------------------------------------------------------------|

Repeat continuously.

It is better if the song is play by two guitars simultaneously. The lead guitar plays 
the tabs and the second guitar plays the chords: C G Am. Enjoy.

Legend:
  1.. p: pull off
  2.. P.M.: palm mute
  3.. h: hammer on

            
            
Suggest correction
Creating personal tab
Creating personal tab
You can edit any tab online and save it as your Personal.

You can edit, replace or remove any tab part or add personal notes – all changes will be seen only by you.

Personal tabs can be accessed anytime from any device, even offline.
Learn more »
Give kudos to tab author, rate the tab!
1 2 3 4 5
comments
print report bad tab
guest
Wanna post a correction for this tab? Suggest correction