Oops, an error
Loading. Please wait.

Derecho A Techo tab

version 2
version 2

Whole song

32 views 1 this week
no commentswrite comment
1 2 3 4 5
3 more votes to show rating
add to favorites
×
Save as Personal and add changes to this tab that will be seen only by you. Learn more ›
×
You can save this tab as Personal to edit and correct it or add notes. All changes will be seen only by you. Learn more »
launch autoscroll
font size
0
reset
how to read this tab
guitar tuner
edit
Autoscroll
slow
fast
+/-
esc
set tempo
stop
INTRO

     D5          F'    D5 F'    D5 F'    D5 F'
e|--------------------------------------------------|
B|--------------------------------------------------|
G|---------------10-10-7--10-10-7--10-10-7--10-10---|
D|---------------10-10-7--10-10-7--10-10-7--10-10---|
A|---5-5-8-5-5---8--8--5--8--8--5--8--8--5--8--8----|
E|--------------------------------------------------|


     D5                            F'  D5 F'  D5 F' D5 F'
La eleccion que tome no fue eleccion
    D5                        F'  D5 F'  D5 F' D5 F'
era eso o no tener nada otra vez
          D5                         F'  D5 F'  D5 F' D5 F'
harto de soportar tanto tiempo sin tener un lugar
       D5          F'   D5 F'  D5 F' D5 F'
nisiquiera a donde ir...alright!!


     A5  G#5 F#5 E5  D5  E'  F#' E'
e|-----------------------------------|
B|-----------------------------------|
G|-------------------7---9---11--9---|
D|---7---6---4---2---7---9---11--9---|
A|---7---6---4---2---5---7---9---7---|
E|---5---4---2---0-------------------|


   A5      G#5    F#5       E5     D5 E' F#' E'
derecho a techo stop the arrestos now
     A5        G#5  F#5    E5    D5 E' F#' E'
you call me a Criminal I need a Home
     A5        G#5  F#5    E5    D5 E' F#' E'
you call me a Criminal I need a Home
   A5      G#5   F#5  E5   D5 E' F#' E'
derecho a techo desalojos no mas


   D5  C5 D5  C5 D5  C5 D5    F'    D5 F'    D5 F'    D5 F'
e|-------------------------------------------------------------|
B|-------------------------------------------------------------|
G|-7-7--5-7-7--5-7-7--5-7-7---10-10-7--10-10-7--10-10-7--10-10-|
D|-7-7--5-7-7--5-7-7--5-7-7---10-10-7--10-10-7--10-10-7--10-10-|
A|-5-5--3-5-5--3-5-5--3-5-5---8--8--5--8--8--5--8--8--5--8--8--|
E|-------------------------------------------------------------|


Solo por el solo hecho de buscar un techo
se me considera aqui un criminal
solo por el hecho de haber nacido pobre
se me considera un criminal tambien, tambien!!


derecho a techo stop the arrestos now
you call me a Criminal I need a Home
you call me a Criminal I need a Home
derecho a techo desalojos no mas


FINAL

     D5  C5 D5  C5 D5  C5 D5    F'
e|-----------------------------------|
B|-----------------------------------|
G|---7-7--5-7-7--5-7-7--5-7-7---10---|
D|---7-7--5-7-7--5-7-7--5-7-7---10---|
A|---5-5--3-5-5--3-5-5--3-5-5---8----|
E|-----------------------------------|

            
            
Suggest correction
Creating personal tab
Creating personal tab
You can edit any tab online and save it as your Personal.

You can edit, replace or remove any tab part or add personal notes – all changes will be seen only by you.

Personal tabs can be accessed anytime from any device, even offline.
Learn more »
Give kudos to tab author, rate the tab!
1 2 3 4 5
comments
print report bad tab
guest
Wanna post a correction for this tab? Suggest correction