Oops, an error
Loading. Please wait.

Si Pudiera tab

version 1
version 1

Whole song

62 views 1 this week
no commentswrite comment
1 2 3 4 5
3 more votes to show rating
add to favorites
×
Save as Personal and add changes to this tab that will be seen only by you. Learn more ›
×
You can save this tab as Personal to edit and correct it or add notes. All changes will be seen only by you. Learn more »
launch autoscroll
font size
0
reset
how to read this tab
guitar tuner
edit
Autoscroll
slow
fast
+/-
esc
set tempo
stop
intro de trompeta


e|--3-3-3-5-3-1-3-3/5-3-1-0--0-0-1-0---0--1-0-----------|
B|-----------------------------------3--------3--1-3-1--|
G|------------------------------------------------------|
D|------------------------------------------------------I
A|------------------------------------------------------|
E|------------------------------------------------------|

e|----0-------------------------------------------------|
B|--1---3-1-3-------------------------------------------|
G|-------------0----------------------------------------|
D|------------------------------------------------------I
A|------------------------------------------------------|
E|------------------------------------------------------|


ESTROFA
  G
Hay si pudiera mi amor
                   Em
encontrarte otra vez

en el lugar de siempre
                  D
a la hora de siempre
                  C
talvez me entenderias lo se
 G
Hay si pudiera talvez
                 Em
encontrarte otra vez

y contarte las cosas
             D                  C
que un dia calle,por el bien de ambos sabes

ESTRIBILLO
       D
Si pudiera mi amor
     C
explicarte el porque
   D
fui solo esa noche
         C
a donde ambos soliamos ir
             D
sabes donde estoy
            C         G
donde estoy ahora, talvez

interludio

e|--10-8-7--10-8-10--12-10-8-7--8-7/5-3--7-5------3-|
B|-------------------------------------------3--5---|
G|--------------------------------------------------|
D|--------------------------------------------------I
A|--------------------------------------------------|
E|--------------------------------------------------|

Repite estrofa y estribillo

sige todo con G em D C

Sabes amor no todo es eterno como mi amor por ti, tenia

un presentimiento y te menti, yo no queria

involucrarte ni llevarte a donde vos no debias ir

no me escape de ti, estoy tras las rejas y ellas me

separan de vos.

            
            
Suggest correction
Creating personal tab
Creating personal tab
You can edit any tab online and save it as your Personal.

You can edit, replace or remove any tab part or add personal notes – all changes will be seen only by you.

Personal tabs can be accessed anytime from any device, even offline.
Learn more »
Give kudos to tab author, rate the tab!
1 2 3 4 5
comments
print report bad tab
guest
Wanna post a correction for this tab? Suggest correction