Oops, an error
Loading. Please wait.

A Way Of Life tab

version 2
version 2

Whole song

Interactive

104 views 1 this week
no commentswrite comment
1 2 3 4 5
3 more votes to show rating
add to favorites
×
Save as Personal and add changes to this tab that will be seen only by you. Learn more ›
×
You can save this tab as Personal to edit and correct it or add notes. All changes will be seen only by you. Learn more »
launch autoscroll
font size
0
reset
how to read this tab
guitar tuner
edit
Autoscroll
slow
fast
+/-
esc
set tempo
stop
Author
-----------------------------------------------------------------------------
                             A Way of Life - Funeral Dress
-----------------------------------------------------------------------------
Band: Funeral Dress
Song: A Way of Life
Album: A Way of Life

Tabbed by: deathx88
Email: deathx88@yahoo.com

Tuning: Standard




Riff 1 (intro) x4

     Q    E  E  E  E  E  E     Q    E  E  E  E  E  E   
E||-------------------------|-------------------------|
B||-------------------------|-------------------------|
G||-------------------------|-------------------------|
D||--9----------------------|-------------------------|
A||--7----7--7--7--7--7--7--|--9----------------------|
E||--0----------------------|--7----7--7--7--7--7--7--|


   Q    E  E  E  E  E  E      Q     E   E   E   E   E   E   
--------------------------|--------------------------------|
--------------------------|--------------------------------|
--------------------------|--------------------------------|
--------------------------|--------------------------------|
--10----------------------|--12----------------------------|
---8----8--8--8--8--8--8--|--10----10--10--10--10--10--10--|




Riff 2 x4

  Q    E  E  E  E  E  E     Q    E  E  E  E  E  E   
-------------------------|-------------------------|
-------------------------|-------------------------|
-------------------------|-------------------------|
--9----9--9--9--9--9--9--|-------------------------|
--7----7--7--7--7--7--7--|--9----9--9--9--9--9--9--|
-------------------------|--7----7--7--7--7--7--7--|


   Q     E   E   E   E   E   E      Q     E   E   E   E   E   E   
--------------------------------|--------------------------------|
--------------------------------|--------------------------------|
--------------------------------|--------------------------------|
--------------------------------|--------------------------------|
--10----10--10--10--10--10--10--|--12----12--12--12--12--12--12--|
---8-----8---8---8---8---8---8--|--10----10--10--10--10--10--10--|   




Riff 3 (chorus) x2

  Q    E  Q    E  E  E     Q    E    Q     E   Q     
------------------------|---------------------------|
------------------------|---------------------------|
------------------------|---------------------------|
------------------------|--9----9s--10----10s--9----|
--9----9--9----9--9--9--|--7----7s---8-----8s--7----|
--7----7--7----7--7--7--|---------------------------|

  Q    E  Q    E  E  E     Q    E    Q     E   Q     
------------------------|---------------------------|
------------------------|---------------------------|
------------------------|---------------------------|
------------------------|--9----9s--10----10s--9----|
--9----9--9----9--9--9--|--7----7s---8-----8s--7----|
--7----7--7----7--7--7--|---------------------------|

  Q    E  Q    E  E  E     Q    E    Q     E   Q     
------------------------|---------------------------|
------------------------|---------------------------|
------------------------|---------------------------|
------------------------|--9----9s--10----10s--9----|
--9----9--9----9--9--9--|--7----7s---8-----8s--7----|
--7----7--7----7--7--7--|---------------------------|


  Q    E  E  E  E  E  E     Q    E  E  E  E  E  E   
-------------------------|-------------------------|
-------------------------|-------------------------|
-------------------------|-------------------------|
--7----7--7--7--7--7--7--|-------------------------|
--5----5--5--5--5--5--5--|--7----7--7--7--7--7--7--|
-------------------------|--5----5--5--5--5--5--5--|




Riff 4

         NH   NH   NH   NH   NH   NH           NH   NH   NH   NH   NH   NH  
  Q      E    E    E    E    E    E     Q      E    E    E    E    E    E   
-------------------------------------|-------------------------------------|
-------------------------------------|-------------------------------------|
-------------------------------------|-------------------------------------|
-------------------------------------|-------------------------------------|
--9----------------------------------|--9----------------------------------|
--7------7----7----7----7----7----7--|--7------7----7----7----7----7----7--|


         NH   NH   NH   NH   NH   NH           NH   NH   NH   NH   NH   NH  
  Q      E    E    E    E    E    E     Q      E    E    E    E    E    E   
-------------------------------------|-------------------------------------|
-------------------------------------|-------------------------------------|
-------------------------------------|-------------------------------------|
-------------------------------------|-------------------------------------|
--9----------------------------------|--9----------------------------------|
--7------7----7----7----7----7----7--|--7------7----7----7----7----7----7--|




Riff 2 x4

  Q    E  E  E  E  E  E     Q    E  E  E  E  E  E   
-------------------------|-------------------------|
-------------------------|-------------------------|
-------------------------|-------------------------|
--9----9--9--9--9--9--9--|-------------------------|
--7----7--7--7--7--7--7--|--9----9--9--9--9--9--9--|
-------------------------|--7----7--7--7--7--7--7--|


   Q     E   E   E   E   E   E      Q     E   E   E   E   E   E   
--------------------------------|--------------------------------|
--------------------------------|--------------------------------|
--------------------------------|--------------------------------|
--------------------------------|--------------------------------|
--10----10--10--10--10--10--10--|--12----12--12--12--12--12--12--|
---8-----8---8---8---8---8---8--|--10----10--10--10--10--10--10--|   




Riff 3 (chorus) x2

  Q    E  Q    E  E  E     Q    E    Q     E   Q     
------------------------|---------------------------|
------------------------|---------------------------|
------------------------|---------------------------|
------------------------|--9----9s--10----10s--9----|
--9----9--9----9--9--9--|--7----7s---8-----8s--7----|
--7----7--7----7--7--7--|---------------------------|

  Q    E  Q    E  E  E     Q    E    Q     E   Q     
------------------------|---------------------------|
------------------------|---------------------------|
------------------------|---------------------------|
------------------------|--9----9s--10----10s--9----|
--9----9--9----9--9--9--|--7----7s---8-----8s--7----|
--7----7--7----7--7--7--|---------------------------|

  Q    E  Q    E  E  E     Q    E    Q     E   Q     
------------------------|---------------------------|
------------------------|---------------------------|
------------------------|---------------------------|
------------------------|--9----9s--10----10s--9----|
--9----9--9----9--9--9--|--7----7s---8-----8s--7----|
--7----7--7----7--7--7--|---------------------------|


  Q    E  E  E  E  E  E     Q    E  E  E  E  E  E   
-------------------------|-------------------------|
-------------------------|-------------------------|
-------------------------|-------------------------|
--7----7--7--7--7--7--7--|-------------------------|
--5----5--5--5--5--5--5--|--7----7--7--7--7--7--7--|
-------------------------|--5----5--5--5--5--5--5--|




Riff 4

         NH   NH   NH   NH   NH   NH           NH   NH   NH   NH   NH   NH  
  Q      E    E    E    E    E    E     Q      E    E    E    E    E    E   
-------------------------------------|-------------------------------------|
-------------------------------------|-------------------------------------|
-------------------------------------|-------------------------------------|
-------------------------------------|-------------------------------------|
--9----------------------------------|--9----------------------------------|
--7------7----7----7----7----7----7--|--7------7----7----7----7----7----7--|


         NH   NH   NH   NH   NH   NH           NH   NH   NH   NH   NH   NH  
  Q      E    E    E    E    E    E     Q      E    E    E    E    E    E   
-------------------------------------|-------------------------------------|
-------------------------------------|-------------------------------------|
-------------------------------------|-------------------------------------|
-------------------------------------|-------------------------------------|
--9----------------------------------|--9----------------------------------|
--7------7----7----7----7----7----7--|--7------7----7----7----7----7----7--|



Riff 2 (rhythm for solo) x4

  Q    E  E  E  E  E  E     Q    E  E  E  E  E  E   
-------------------------|-------------------------|
-------------------------|-------------------------|
-------------------------|-------------------------|
--9----9--9--9--9--9--9--|-------------------------|
--7----7--7--7--7--7--7--|--9----9--9--9--9--9--9--|
-------------------------|--7----7--7--7--7--7--7--|


   Q     E   E   E   E   E   E      Q     E   E   E   E   E   E   
--------------------------------|--------------------------------|
--------------------------------|--------------------------------|
--------------------------------|--------------------------------|
--------------------------------|--------------------------------|
--10----10--10--10--10--10--10--|--12----12--12--12--12--12--12--|
---8-----8---8---8---8---8---8--|--10----10--10--10--10--10--10--|   




Solo

  Q    Q     E   E    Q       Q    Q     E   E    Q     
---------------------------|---------------------------|
--8----8----10s--8s--10----|--8----8----10s--8s--10----|
---------------------------|---------------------------|
---------------------------|---------------------------|
---------------------------|---------------------------|
---------------------------|---------------------------|


  Q    Q     E   E    Q        W                  Q     E   E  Q    E   E    
---------------------------|------------------|-----------------------------|
--8----8----10s--8s--10----|--10b-------------|--10----10s--8---------------|
---------------------------|------------------|----------------9----7s--9b--|
---------------------------|------------------|-----------------------------|
---------------------------|------------------|-----------------------------|
---------------------------|------------------|-----------------------------|


  E  S S E  E  Q    E   E     S S E  S S E   S  S  E  S S E   
---------------------------|---------------------------------|
---------------------------|---------------------------------|
--L--7-9-7-----7-----------|---------------------------------|
------------9-------9s--7--|--9-9-9--7-7-7-------------------|
---------------------------|----------------10-10-10--7-7-7--|
---------------------------|---------------------------------|


  W                     E    E   Q     E    E   Q     
--------------------|--------------------------------|
--------------------|--------------------------------|
--------------------|-----------12-------------12----|
--------------------|--12s--14--------12s--14--------|
--9b----------------|--------------------------------|
--------------------|--------------------------------|


   E    E   Q     E    E   Q        E    E   Q     E    E   Q     
--------------------------------|--------------------------------|
--------------------------------|--------------------------------|
-----------12-------------12----|-----------12-------------12----|
--12s--14--------12s--14--------|--12s--14--------12s--14--------|
--------------------------------|--------------------------------|
--------------------------------|--------------------------------|


   W                     E    E   Q     E    E   Q     
---------------------|--------------------------------|
--10b----------------|--10s--12--15----10s--12--15----|
---------------------|--------------------------------|
---------------------|--------------------------------|
---------------------|--------------------------------|
---------------------|--------------------------------|


   E    E   Q     E    E   Q        E    E   Q     E    E   E    E   
--------------------------------|-----------12----15s--12-----------|
--10s--12--15----10s--12--15----|--10s--12-----------------12s--15--|
--------------------------------|-----------------------------------|
--------------------------------|-----------------------------------|
--------------------------------|-----------------------------------|
--------------------------------|-----------------------------------|


   W                                                                          
--15b----------------|
---------------------|
---------------------|
---------------------|
---------------------|
---------------------|




Riff 3 (chorus) x2

  Q    E  Q    E  E  E     Q    E    Q     E   Q     
------------------------|---------------------------|
------------------------|---------------------------|
------------------------|---------------------------|
------------------------|--9----9s--10----10s--9----|
--9----9--9----9--9--9--|--7----7s---8-----8s--7----|
--7----7--7----7--7--7--|---------------------------|

  Q    E  Q    E  E  E     Q    E    Q     E   Q     
------------------------|---------------------------|
------------------------|---------------------------|
------------------------|---------------------------|
------------------------|--9----9s--10----10s--9----|
--9----9--9----9--9--9--|--7----7s---8-----8s--7----|
--7----7--7----7--7--7--|---------------------------|

  Q    E  Q    E  E  E     Q    E    Q     E   Q     
------------------------|---------------------------|
------------------------|---------------------------|
------------------------|---------------------------|
------------------------|--9----9s--10----10s--9----|
--9----9--9----9--9--9--|--7----7s---8-----8s--7----|
--7----7--7----7--7--7--|---------------------------|


  Q    E  E  E  E  E  E     Q    E  E  E  E  E  E   
-------------------------|-------------------------|
-------------------------|-------------------------|
-------------------------|-------------------------|
--7----7--7--7--7--7--7--|-------------------------|
--5----5--5--5--5--5--5--|--7----7--7--7--7--7--7--|
-------------------------|--5----5--5--5--5--5--5--|




Riff 4

         NH   NH   NH   NH   NH   NH           NH   NH   NH   NH   NH   NH  
  Q      E    E    E    E    E    E     Q      E    E    E    E    E    E   
-------------------------------------|-------------------------------------|
-------------------------------------|-------------------------------------|
-------------------------------------|-------------------------------------|
-------------------------------------|-------------------------------------|
--9----------------------------------|--9----------------------------------|
--7------7----7----7----7----7----7--|--7------7----7----7----7----7----7--|


         NH   NH   NH   NH   NH   NH           NH   NH   NH   NH   NH   NH  
  Q      E    E    E    E    E    E     Q      E    E    E    E    E    E   
-------------------------------------|-------------------------------------|
-------------------------------------|-------------------------------------|
-------------------------------------|-------------------------------------|
-------------------------------------|-------------------------------------|
--9----------------------------------|--9----------------------------------|
--7------7----7----7----7----7----7--|--7------7----7----7----7----7----7--|





Riff 2 x4

  Q    E  E  E  E  E  E     Q    E  E  E  E  E  E   
-------------------------|-------------------------|
-------------------------|-------------------------|
-------------------------|-------------------------|
--9----9--9--9--9--9--9--|-------------------------|
--7----7--7--7--7--7--7--|--9----9--9--9--9--9--9--|
-------------------------|--7----7--7--7--7--7--7--|


   Q     E   E   E   E   E   E      Q     E   E   E   E   E   E   
--------------------------------|--------------------------------|
--------------------------------|--------------------------------|
--------------------------------|--------------------------------|
--------------------------------|--------------------------------|
--10----10--10--10--10--10--10--|--12----12--12--12--12--12--12--|
---8-----8---8---8---8---8---8--|--10----10--10--10--10--10--10--|   




Riff 3 (chorus) x2

  Q    E  Q    E  E  E     Q    E    Q     E   Q     
------------------------|---------------------------|
------------------------|---------------------------|
------------------------|---------------------------|
------------------------|--9----9s--10----10s--9----|
--9----9--9----9--9--9--|--7----7s---8-----8s--7----|
--7----7--7----7--7--7--|---------------------------|

  Q    E  Q    E  E  E     Q    E    Q     E   Q     
------------------------|---------------------------|
------------------------|---------------------------|
------------------------|---------------------------|
------------------------|--9----9s--10----10s--9----|
--9----9--9----9--9--9--|--7----7s---8-----8s--7----|
--7----7--7----7--7--7--|---------------------------|

  Q    E  Q    E  E  E     Q    E    Q     E   Q     
------------------------|---------------------------|
------------------------|---------------------------|
------------------------|---------------------------|
------------------------|--9----9s--10----10s--9----|
--9----9--9----9--9--9--|--7----7s---8-----8s--7----|
--7----7--7----7--7--7--|---------------------------|


  Q    E  E  E  E  E  E     Q    E  E  E  E  E  E   
-------------------------|-------------------------|
-------------------------|-------------------------|
-------------------------|-------------------------|
--7----7--7--7--7--7--7--|-------------------------|
--5----5--5--5--5--5--5--|--7----7--7--7--7--7--7--|
-------------------------|--5----5--5--5--5--5--5--|




Riff 4

         NH   NH   NH   NH   NH   NH           NH   NH   NH   NH   NH   NH  
  Q      E    E    E    E    E    E     Q      E    E    E    E    E    E   
-------------------------------------|-------------------------------------|
-------------------------------------|-------------------------------------|
-------------------------------------|-------------------------------------|
-------------------------------------|-------------------------------------|
--9----------------------------------|--9----------------------------------|
--7------7----7----7----7----7----7--|--7------7----7----7----7----7----7--|


         NH   NH   NH   NH   NH   NH           NH   NH   NH   NH   NH   NH  
  Q      E    E    E    E    E    E     Q      E    E    E    E    E    E   
-------------------------------------|-------------------------------------|
-------------------------------------|-------------------------------------|
-------------------------------------|-------------------------------------|
-------------------------------------|-------------------------------------|
--9----------------------------------|--9----------------------------------|
--7------7----7----7----7----7----7--|--7------7----7----7----7----7----7--|



  W                  
-------------------||
-------------------||
-------------------||
-------------------||
--9----------------||
--7----------------||




Duration Legend
---------------
W - whole
H - half
Q - quarter
E - 8th
S - 16th
T - 32nd
X - 64th
. - note dotted
|-n-|  - n-tuplets


Tablature Legend
----------------
L - tied note
x - dead note
g - grace note
(n) - ghost note
> - accentuded note
NH - natural harmonic
AH - artificial harmonic
TH - tapped harmonic
SH - semi harmonic
PH - pitch harmonic
h - hammer on
p - pull off
b - bend
br - bendRelease
pb - preBend
pbr - preBendRelease
brb - bendReleaseBend
\n/ - tremolo bar dip
\n - tremolo bar dive
-/n - tremolo bar Release up
/n\ - tremolo bar inverted dip
/n - tremolo bar return
-\n - tremolo bar Release down
S - shift slide
s - legato slide
/ -  slide into from below or out of upwards
\ -  slide into from above or out of downwards
~ - vibrato
W - wide vibrato
tr - trill
TP - tremolo picking
T - tapping
S - slap
P - pop
< - fade in
^ - brush up
v - brush down


            
            
Suggest correction
Creating personal tab
Creating personal tab
You can edit any tab online and save it as your Personal.

You can edit, replace or remove any tab part or add personal notes – all changes will be seen only by you.

Personal tabs can be accessed anytime from any device, even offline.
Learn more »
Give kudos to tab author, rate the tab!
1 2 3 4 5
comments
print report bad tab
guest
You may want to rate the tab now too:
select rating
Wanna post a correction for this tab? Suggest correction