Oops, an error
Loading. Please wait.

Red Is The New Black tab

version 1
version 1
6,300 views 6 this week
4 commentsread comments
1 2 3 4 5
x 8
add to favorites
×
Save as Personal and add changes to this tab that will be seen only by you. Learn more ›
×
You can save this tab as Personal to edit and correct it or add notes. All changes will be seen only by you. Learn more »
launch autoscroll
font size
0
reset
how to read this tab
guitar tuner
edit
Autoscroll
slow
fast
+/-
esc
set tempo
stop
E|--------------------------------------------------|
B|--------------------------------------------------|
G|--------------------------------------------------|
D|--------------------------------------------------|(2x)after u do this 2 times
A|--8-8--10--8--10--8-8-8--11--8-8--11--8-8--11--8--| go to/
E|--------------------------------------------------|     /
                                                         /
                                                    E|--------------------|
                                                    B|--------------------|
                                                    G|-------8--12p8------| (x4)
                                                    D|--------------------|
                                                    A|-8-8-8--------------|
                                                    E|--------------------|
                                                     once you have done this 
                                                     part 4 times keep on doin with distortion /
                                   both parts one after 
                /     (outro)                        another 4 a few times
E|---------------------------------------|
B|---------------------------------------| 
G|---------------------------------------| figure out strumming.play quite fast.
D|-6-6-6-6-6-6-6-6-6----6---6------------|
A|-6-6-6-6-6-6-6-6-6----6---6------------|
E|-4-4-4-4-4-4-4-4-4----4---4------------|

            
            
Suggest correction
Creating personal tab
Creating personal tab
You can edit any tab online and save it as your Personal.

You can edit, replace or remove any tab part or add personal notes – all changes will be seen only by you.

Personal tabs can be accessed anytime from any device, even offline.
Learn more »
comments
print report bad tab
4 comments total. Showing first comments.
0 reply
steve556 30 Dec 04, 2003 07:00 PM

eeeeey thats totally wrong

the bit after the pm'ed intro is

-----------------------
----------------9------
----------9-------9----
------7-----7----------
----5---5-----5--------
-----------------------

0 reply
steve556 30 Dec 09, 2003 07:00 PM

oi..im right.
you cant go putting some odd line that doesnt even sound correct. you have the wrong NOTES for cryin out loud, never mind the wrong rhythm

0 reply
steve556 30 Dec 20, 2003 07:00 PM

Who said i knew the song..
i dont know the whole song, i just worked out that little picking bit...
and im entitled to my opinion, i dont want a load of abuse cos i posted a bit i think is wrong, with a bit that i think is right.
It says "Comments" and thats what it is. It's a comment.

guest
Wanna post a correction for this tab? Suggest correction