Oops, an error
Loading. Please wait.

Ran bass

1,390 views 39 this week
no commentswrite comment
1 2 3 4 5
x 4
add to favorites
×
Save as Personal and add changes to this tab that will be seen only by you. Learn more ›
×
You can save this tab as Personal to edit and correct it or add notes. All changes will be seen only by you. Learn more »
launch autoscroll
font size
0
reset
guitar tuner
edit
Autoscroll
slow
fast
+/-
esc
set tempo
stop
[Verse 1]
G|-------------|-------------|-------------|-------------||
D|-------------|-------------|-------------|-------------||
A|-------------|-------------|-------------|-------10-10-||
E|-6--6--6--6--|-6--6--6--6--|-6--6--8--8--|-10-10-------||
                                                          |
G|-------------|-------------|-------------|-------------||
D|-------------|-------------|-------------|-------8--8--||
A|-8--8--8--8--|-8--8--8--8--|-8--8--5--5--|-8--8--------||
E|-------------|-------------|-------------|-------------||
                                                          | x3
G|-------------|-------------|-------------|-------------||
D|-5--5--5--5--|-5--5--5--5--|-5--5--7--7--|-8--8--------||
A|-------------|-------------|-------------|-------8--8--||
E|-------------|-------------|-------------|-------------||
                                                          |
G|-------------|-------------|-------------|-------------||
D|-------------|-------------|-------------|-------------||
A|-6--6--6--6--|-6--6--6--6--|-6--6--5--5--|-6--6--8--8--||
E|-------------|-------------|-------------|-------------||

[Pre-Chorus]
G|-------------|-------------|-------------|-------------|
D|-------------|-------------|-------------|-------------|
A|-------------|-------------|-------------|-------10-10-|
E|-6--6--6--6--|-6--6--6--6--|-6--6--8--8--|-10-10-------|

G|-------------|-------------|-------------|-------------|
D|-------------|-------------|-------------|-------8--8--|
A|-8--8--8--8--|-8--8--8--8--|-8--8--5--5--|-8--8--------|
E|-------------|-------------|-------------|-------------|

G|-------------|-------------|-------------|-------------|
D|-5--5--5--5--|-5--5--5--5--|-5--5--7--7--|-8--8--------|
A|-------------|-------------|-------------|-------8--8--|
E|-------------|-------------|-------------|-------------|

G|-------------|-------------|-------------|-------------|
D|-------------|-------------|-------------|-------------|
A|-6--6--6--6--|-6--6--6--6--|-6--6--5--5--|-6--6--8--8--|
E|-------------|-------------|-------------|-------------|

[Chorus]
G|-------------|-------------|-------------|-------------||
D|-------------|-------------|-------------|-------------||
A|-------------|-------------|-------------|-------------||
E|-1--1--1--1--|-1--1--1--1--|-1--1--1--1--|-1--1--1--1--||
                                                          |
G|-------------|-------------|-------------|-------------||
D|-------------|-------------|-------------|-------------||
A|-------------|-------------|-------------|-------------||
E|-3--3--3--3--|-3--3--3--3--|-3--3--3--3--|-3--3--3--3--||
                                                          | x2
G|-------------|-------------|-------------|-------------||
D|-------------|-------------|-------------|-------------||
A|-6--6--6--6--|-6--6--6--6--|-6--6--6--6--|-6--6--6--6--||
E|-------------|-------------|-------------|-------------||
                                                          |
G|-------------|-------------|-------------|-------------||
D|-------------|-------------|-------------|-------------||
A|-------------|-------------|-6--6--6--6--|-6--6--6--6--||
E|-6--6--6--6--|-6--6--6--6--|-------------|-------------||

G|-------------|-------------|-------------|-------------|
D|-------------|-------------|-------------|-------------|
A|-------------|-------------|-6--6--6--6--|-6--6--6--6--|
E|-6--6--6--6--|-6--6--6--6--|-------------|-------------|

G|-------------|-------------|-------------|-------------|
D|-------------|-------------|-------------|-------------|
A|-------------|-------------|-------------|-------------|
E|-1--1--1--1--|-1--1--1--1--|-1--1--1--1--|-1--1--1--1--|
                                                          
G|-------------|-------------|-------------|-------------|
D|-------------|-------------|-------------|-------------|
A|-------------|-------------|-------------|-------------|
E|-3--3--3--3--|-3--3--3--3--|-3--3--3--3--|-3--3--3--3--|

[Verse]
G|-------------|-------------|-------------|-------------||
D|-------------|-------------|-------------|-------------||
A|-------------|-------------|-------------|-------10-10-||
E|-6--6--6--6--|-6--6--6--6--|-6--6--8--8--|-10-10-------||
                                                          |
G|-------------|-------------|-------------|-------------||
D|-------------|-------------|-------------|-------8--8--||
A|-8--8--8--8--|-8--8--8--8--|-8--8--5--5--|-8--8--------||
E|-------------|-------------|-------------|-------------||
                                                          | x2
G|-------------|-------------|-------------|-------------||
D|-5--5--5--5--|-5--5--5--5--|-5--5--7--7--|-8--8--------||
A|-------------|-------------|-------------|-------8--8--||
E|-------------|-------------|-------------|-------------||
                                                          |
G|-------------|-------------|-------------|-------------||
D|-------------|-------------|-------------|-------------||
A|-6--6--6--6--|-6--6--6--6--|-6--6--5--5--|-6--6--8--8--||
E|-------------|-------------|-------------|-------------||

[Chorus]
G|-------------|-------------|-------------|-------------||
D|-------------|-------------|-------------|-------------||
A|-------------|-------------|-------------|-------------||
E|-1--1--1--1--|-1--1--1--1--|-1--1--1--1--|-1--1--1--1--||
                                                          |
G|-------------|-------------|-------------|-------------||
D|-------------|-------------|-------------|-------------||
A|-------------|-------------|-------------|-------------||
E|-3--3--3--3--|-3--3--3--3--|-3--3--3--3--|-3--3--3--3--||
                                                          | x2
G|-------------|-------------|-------------|-------------||
D|-------------|-------------|-------------|-------------||
A|-6--6--6--6--|-6--6--6--6--|-6--6--6--6--|-6--6--6--6--||
E|-------------|-------------|-------------|-------------||
                                                          |
G|-------------|-------------|-------------|-------------||
D|-------------|-------------|-------------|-------------||
A|-------------|-------------|-6--6--6--6--|-6--6--6--6--||
E|-6--6--6--6--|-6--6--6--6--|-------------|-------------||

G|-------------|-------------|-------------|-------------|
D|-------------|-------------|-------------|-------------|
A|-------------|-------------|-6--6--6--6--|-6--6--6--6--|
E|-6--6--6--6--|-6--6--6--6--|-------------|-------------|

{Outro]
G|-------------|-------------|-------------|-------------||
D|-------------|-------------|-------------|-------------||
A|-------------|-------------|-------------|-------------||
E|-1--1--1--1--|-1--1--1--1--|-1--1--1--1--|-1--1--1--1--||
                                                          |
G|-------------|-------------|-------------|-------------||
D|-------------|-------------|-------------|-------------||
A|-------------|-------------|-------------|-------------||
E|-3--3--3--3--|-3--3--3--3--|-3--3--3--3--|-3--3--3--3--||
                                                          | x2
G|-------------|-------------|-------------|-------------||
D|-------------|-------------|-------------|-------------||
A|-6--6--6--6--|-6--6--6--6--|-6--6--6--6--|-6--6--6--6--||
E|-------------|-------------|-------------|-------------||
                                                          |
G|-------------|-------------|-------------|-------------||
D|-------------|-------------|-------------|-------------||
A|-------------|-------------|-6--6--6--6--|-6--6--6--6--||
E|-6--6--6--6--|-6--6--6--6--|-------------|-------------||

G|-------------|-------------|-------------|-------------|
D|-------------|-------------|-------------|-------------|
A|-------------|-------------|-6--6--6--6--|-6--6--6--6--|
E|-6--6--6--6--|-6--6--6--6--|-------------|-------------|

G|-------------|-------------|-------------|-------------|
D|-------------|-------------|-------------|-------------|
A|-------------|-------------|-------------|-------------|
E|-1--1--1--1--|-1--1--1--1--|-1--1--1--1--|-1--1--1--1--|
                                                          
G|-------------|-------------|-------------|-------------|
D|-------------|-------------|-------------|-------------|
A|-------------|-------------|-------------|-------------|
E|-3--3--3--3--|-3--3--3--3--|-3--3--3--3--|-3--3--3--3--|

            
            
Suggest correction
Creating personal tab
Creating personal tab
You can edit any tab online and save it as your Personal.

You can edit, replace or remove any tab part or add personal notes – all changes will be seen only by you.

Personal tabs can be accessed anytime from any device, even offline.
Learn more »
comments
print report bad tab
guest
You may want to rate the tab now too:
select rating
Wanna post a correction for this tab? Suggest correction