Oops, an error
Loading. Please wait.

Only Happy When It Rains Live intro tab

by Garbage
1,434 views 1 this week
3 commentsread comments
1 2 3 4 5
1 last vote to show rating
add to favorites
×
Save as Personal and add changes to this tab that will be seen only by you. Learn more ›
×
You can save this tab as Personal to edit and correct it or add notes. All changes will be seen only by you. Learn more »
launch autoscroll
font size
0
reset
how to read this tab
guitar tuner
edit
Autoscroll
slow
fast
+/-
esc
set tempo
stop
Author
Difficulty
Band: Garbage
Song Title: Only Happy When It Rains (Live Intro)
Tuning: Normal

When Garbage plays "Only Happy When It Rains" live Duke & Steve have a small riff they
as an intro to the song. They tend to change slightly from night to night but it is
much the same. This is one of those versions. It is pretty much the same maybe only a 
different notes from night to night.

E----------------------------------------------------------------------|I
B-------5-------------------------------5-------5---------------6------|I
G---------------7-------5-------7-----------------------7--------------|I
D---7-------7-------7-------7-------7-------7-------7-------7----------|I
A----------------------------------------------------------------------|I
E----------------------------------------------------------------------|I

            
            
Suggest correction
Creating personal tab
Creating personal tab
You can edit any tab online and save it as your Personal.

You can edit, replace or remove any tab part or add personal notes – all changes will be seen only by you.

Personal tabs can be accessed anytime from any device, even offline.
Learn more »
Give kudos to tab author, rate the tab!
1 2 3 4 5
comments
print report bad tab
3 comments total.
0 reply
SWillibr 32 Aug 10, 2011 10:12 PM

Sounds like AC/DC to me...

0 reply
Sparky22 346 Apr 11, 2013 12:46 PM

All one fret too high.

0 reply
tmaycock 20 Jun 12, 2014 02:33 AM

|-------------------------------------------------------|
|-----5-4-------5-4------5-4-----5-4------5-4------5-4--|
|-------------------------------------------------------|
|--6---------4--------2----------------6--------4-------|
|-----------------------------4-------------------------|
|-------------------------------------------------------|

guest
You may want to rate the tab now too:
select rating
Wanna post a correction for this tab? Suggest correction