Oops, an error
Loading. Please wait.

Things Are Changing tab

17,777 views 81 this week
1 commentread comment
1 2 3 4 5
x 17
add to favorites
×
Save as Personal and add changes to this tab that will be seen only by you. Learn more ›
×
You can save this tab as Personal to edit and correct it or add notes. All changes will be seen only by you. Learn more »
launch autoscroll
font size
0
reset
how to read this tab
guitar tuner
edit
Autoscroll
slow
fast
+/-
esc
set tempo
stop
Author
Difficulty
intermediate
Intro:  A-B-A-C-A-D
 A - X 2
e|------0-----------|
B|----7---------0---|
G|--6---------6-----|
D|------------------|
A|5---------5-------|
E|------------------|

 B
e|------4--------4--------4-----------|
B|----0--------0--------0--------0----|
G|--6--------6--------6--------6------|
D|------------------------------------|
A|0--------0--------0--------0--------|
E|------------------------------------|

 C
e|------4-------5-------7-------------|
B|----0-------0-------0-------0-------|
G|--6-------6-------6-------6---------|
D|------------------------------------|
A|0-------0-------0-------0-----------|
E|------------------------------------|

D-downstrum
e|-4----|
B|-0----|
G|-6----|
D|-7----|
A|-0----|
E|------|

[Chorus and Verse Chords]
 He plays the individual notes in each chord differently in every version that I've
 heard. So just listen to the one you like best, and play it that way.
e|5----------4---|
B|7----------5---|
G|6----------4---|
D|7----------6---|
A|5----------4---|
E|---------------|

 [Outro]
e|-5-----3-----1-----5---|
B|-7-----3-----1-----5---|
G|-6-----4-----2-----6---|
D|-7-----5-----3-----7---|
A|-5-----x-----x-----x---|
E|-------3-----1-----5---|


************************************

| x  Dead note

************************************

            
            
Suggest correction
Creating personal tab
Creating personal tab
You can edit any tab online and save it as your Personal.

You can edit, replace or remove any tab part or add personal notes – all changes will be seen only by you.

Personal tabs can be accessed anytime from any device, even offline.
Learn more »
comments
print report bad tab
1 comment total.
0 reply
mrjo225 20 Sep 02, 2017 11:44 PM

rockssss

guest
You may want to rate the tab now too:
select rating
Wanna post a correction for this tab? Suggest correction