Oops, an error
Loading. Please wait.

When My Train Pulls In tab

version 2
version 2

Whole song

5,678 views 63 this week
2 commentsread comments
1 2 3 4 5
x 10
add to favorites
×
Save as Personal and add changes to this tab that will be seen only by you. Learn more ›
×
You can save this tab as Personal to edit and correct it or add notes. All changes will be seen only by you. Learn more »
launch autoscroll
font size
0
reset
how to read this tab
guitar tuner
edit
Autoscroll
slow
fast
+/-
esc
set tempo
stop
Author
-----------------------------------------------------------------
           When My Train Pulls In - Gary Clark Jr.
-----------------------------------------------------------------

Tabbed By : Aeonoptic
e-mail: aeonoptic@gmail.com
 
Tuning: EADGBe

NOTE: The verse was tabbed out by t_peters. I am simply combining his
verse tab with the solo to complete it.

Intro & Verse 1
e|-------------------------|
B|-------------------------|
G|-------------------------|
D|-----0-------0h2---2-----| 
A|-0h2---0-2---------------|
E|-----------3-----0---0---|

   0:46            Am  Am7            Am6               Em
e|------------------x----------------------------------------------------------------------|
B|------------------5-----8-------8------7-------7-----------------------------------------|
G|------------------5----5--5---5---5--5---5---5---5---------------------------------------|
D|------0-----------7--7------7------7-------7----------0h2---2--------0-------0h2----2----|
A|--0h2---0-2-------x----------------------------------------------0h2---0-2---------------|
E|------------3--/5-5---------------------------------------0---0------------3------0----0-|

   0:57              Bm   Am7 Am
e|-------------------x--x--x--x--|
B|-------------------7--7--8--5--|
G|-------------------7--7--5--5--|
D|------0------------9--9--7--7--|
A|--0h2---0-2--------x--x--x--x--|
E|------------3--/7--7--7--5--5--|


e|-------------------------|
B|-------------------------|
G|-------------------------|
D|-----0-------0h2---2-----| X3
A|-0h2---0-2---------------|
E|-----------3-----0---0---|

  1:10
    Em*
e|---7-7-7-7-7-7-7-7----|
B|---8-8-8-8-8-8-8-8----|
G|---9-9-9-9-9-9-9-9----| X4
D|---9-9-9-9-9-9-9-9----|
A|---7-7-7-7-7-7-7-7----|
E|----------------------|

 1:22
    Am   
e|--x--x--x--x---x----------------------------|
B|--5--5--5--5---5----------------------------|
G|--5--5--5--5---5----------------------------|
D|--7--7--7--7---7---------0-------0h2---2----|
A|--x--x--x--x---x-----0h2---0-2--------------|
E|--5--5--5--5---5---------------3-----0---0--|

                     Bm    Am
e|-------------------x--x--x--x--|
B|-------------------7--7--5--5--|
G|-------------------7--7--5--5--|
D|------0------------9--9--7--7--|
A|--0h2---0-2--------x--x--x--x--|
E|------------3--/7--7--7--5--5--|

Solo
  Em7                                                               Am7
E|-------|-------------------------|-----------|-----------12-12---|12~-----12h14~-12----12~-----------------|
B|-------|-------------------------|------12---|-----12-15-------15|-----15-----------15------15p12-15~p12-14|
G|14~~~~~|---12-14-14b16~~-12------|12-14------|-------------------|-----------------------------------------|
D|-------|14------------------14-14|-----------|-------------------|-----------------------------------------|
A|-------|-------------------------|-----------|-------------------|-----------------------------------------|
E|-------|-------------------------|-----------|-------------------|-----------------------------------------|

                                              Em7
E|-------------------------------------------|-------------------|---------------------------------|
B|12h14p12------------------------12---------|15~~--15-12--------|---------------------------------|
G|---------14~-12--------14-12-14----14-12---|------------14-12--|---12h14~~--12-----------12-14-14|
D|----------------14-14--------------------14|-------------------|14-------------14-----12---------|
A|-------------------------------------------|-------------------|---------------------------------|
E|-------------------------------------------|------------------0|------------------0--------------|

  Bm7                                 Am7                                   Em7
E|-----------------------------------|-------------------------------------|------------|
B|---------15-----15----12~-----15---|15-14-12----12-----------------------|------------|
G|14~~--12-----12----12------12----12|---------14----12-14br16~~-----12h14~|12----------|
D|-----------------------------------|----------------------------14-------|---14-------|
A|-----------------------------------|-------------------------------------|------------|
E|-----------------------------------|-------------------------------------|------0-0-0-|
  
                    Em7
E|-----------------|-------------------------------|-----------------------------------|
B|-----------------|12------12------12------12-----|-12------12-----12-15-12------12-15|
G|-----------------|14b16~~-14b16~~-14b16~~-14b16~~|-14b16~~-14b16~~------14b16~~------|
D|--14---14-----14~|-------------------------------|-----------------------------------|
A|-----------------|-------------------------------|-----------------------------------|
E|0----0----0-0----|-------------------------------|-----------------------------------|

E|--------------------------------------------------|----------------------------------------------------|
B|12-----12-15-12----12-15-12-----12-15-12-----12-15|12-----12-15-12----12-15-12-----12-15-12-------12-15|
G|14b16~-------14b16~------14b16~-------14b16~------|14b16~-------14b16~--------14b16~-------14b16~------|
D|--------------------------------------------------|----------------------------------------------------|
A|--------------------------------------------------|----------------------------------------------------|
E|--------------------------------------------------|----------------------------------------------------|

  Am7
E|--------------------------------------------------|-------------------------------------------------12-14-12|
B|12-----12-15-12----12-15-12-----12-15-12-----12-15|12-----12-15-12----12-15-12h15p12----15b18-12-15---------|
G|14b16~-------14b16~--------14b16~-------14b16~----|14b16~-------14b16----------------14---------------------|
D|--------------------------------------------------|---------------------------------------------------------|
A|--------------------------------------------------|---------------------------------------------------------|
E|--------------------------------------------------|---------------------------------------------------------|

  Em7
E|---------15brb17--12-15b17~~|---15-17~~--12-15b17~--------12-12-------12-------12-12|
B|15-12-15--------------------|17---------------------15b17-------15b17----15b17------|
G|----------------------------|-------------------------------------------------------|
D|----------------------------|-------------------------------------------------------|
A|----------------------------|-------------------------------------------------------|
E|----------------------------|-----------0-------------------------------------------|

  Bm7                                                 Am7
E|------12-12-------12-------12-12-12--------12------|12-12-12-12-------12-------12----15-12------------|
B|15b17-------15b17----15b17-----------15b17----15b17|------------15b17----15b17----15-------15-12-15---|
G|---------------------------------------------------|------------------------------------------------12|
D|---------------------------------------------------|--------------------------------------------------|
A|---------------------------------------------------|--------------------------------------------------|
E|---------------------------------------------------|--------------------------------------------------|

  Em7
E|-------------------------------------------|------------------------|
B|------------------------------------12-----|------------------------|
G|14b16-12-------------12-12h14b16~~-----12--|------------------------|
D|---------14-14~---14-----------------------|12h14-----------12h14---|
A|-------------------------------------------|------------------------|
E|------------------------------------------0|------15--15-15-------12|
 

| /  slide up
| \  slide down
| h  hammer-on
| p  pull-off
| ~  vibrato
| +  harmonic
| x  Mute note

            
            
Suggest correction
Creating personal tab
Creating personal tab
You can edit any tab online and save it as your Personal.

You can edit, replace or remove any tab part or add personal notes – all changes will be seen only by you.

Personal tabs can be accessed anytime from any device, even offline.
Learn more »
comments
print report bad tab
2 comments total.
0 reply
dt25ecjg24 10 Jul 29, 2017 04:57 AM

Please tab pro

0 reply
Alba_Tim 10 Aug 13, 2017 02:47 PM

Mind that this is the version from the official music video which is not the same version that's one the Blank and Blue record!
(personaly I prefer the version that's on the record itself, that one has a lot more staty typical gary licks)

guest
You may want to rate the tab now too:
select rating
Wanna post a correction for this tab? Suggest correction