Oops, an error
Loading. Please wait.
30,082 views 519 this week
3 commentsread comments
1 2 3 4 5
x 9
add to favorites
×
Save as Personal and add changes to this tab that will be seen only by you. Learn more ›
×
You can save this tab as Personal to edit and correct it or add notes. All changes will be seen only by you. Learn more »
launch autoscroll
font size
0
reset
how to read this tab
guitar tuner
backing track
0:00
0:00
edit
Autoscroll
slow
fast
+/-
esc
set tempo
stop
Props go out to Vermox, all I did was put his song in the right key and add chords.

When playing chords for this song, use a capo on the first fret, when reading chords, 
that although they look like they're in standard it's just the chord form.

Capoed to standard
(Em)       (Fm)
(G )       (Ab)
(D)        (Eb)
(A)        (Bb)

[Intro]
   Em              A              Em                   A
e|---8-------------------------------8---------------------------------|
B|-9---8-9-6-8---------6-------6-9-----8-9----8-9-11-----11-------11---|
G|-------------8-7-----7-------7-----------10------------10-------10---|
D|-----------------8-------8-------------------------8--------8--------|
A|---------------------------------------------------------------------|
E|---------------------------------------------------------------------|

[Verse 1]
    Em                G                 D                 A
e|-----------------------------------------------------------------------|
B|-----------------------------------------------------------11------11--|
G|-----10-------10--------13-------13------------------------10------10--| x4
D|-----10-------10--------13-------13-------13-------13---8-------8------|
A|--8--------8--------11-------11-----------13-------13------------------|
E|--------------------------------------11-------11----------------------|

[Pre-chorus]
    Em              A               Em              A
e|-----------------------------------------------------------------------|
B|---------------------11------11----------------------11------11--------|
G|-----10------10------10------10------10------10------10------10--------| x2
D|-----10------10---8-------8----------10------10---8-------8------------|
A|--8-------8-----------------------8-------8----------------------------|
E|-----------------------------------------------------------------------|

[Chorus]
   Em              A              Em                   A
e|---8-------------------------------8---------------------------------|
B|-9---8-9-6-8---------6-------6-9-----8-9----8-9-11-----11-------11---|
G|-------------8-7-----7-------7-----------10------------10-------10---|
D|-----------------8-------8-------------------------8--------8--------|
A|---------------------------------------------------------------------|
E|---------------------------------------------------------------------|

[Verse 2]
   Em                 G                 D                 A
e|-----------------------------------------------------------------------|
B|-----------------------------------------------------------11------11--|
G|-----10-------10--------13-------13------------------------10------10--| x4
D|-----10-------10--------13-------13-------13-------13---8-------8------|
A|--8--------8--------11-------11-----------13-------13------------------|
E|--------------------------------------11-------11----------------------|

This is the cello part that compliments the piano
    Em	             G               D	             A
e|-------------------------------------------------------------------|
B|-------------------------------------------------------------------|
G|-------------------------------------------------------------------|
D|-------------------------------------------------------------------|
A|-----------------------------------6---------------5---------------|
E|--1----------------4-----------------------------------------------|

[Pre-chorus]
   Em               A              Em               A
e|-----------------------------------------------------------------------|
B|---------------------11------11----------------------11------11--------|
G|-----10------10------10------10------10------10------10------10--------| x2
D|-----10------10---8-------8----------10------10---8-------8------------|
A|--8-------8-----------------------8-------8----------------------------|
E|-----------------------------------------------------------------------|

[Chorus/Outro]
   Em              A              Em                   A
e|---8-------------------------------8---------------------------------|
B|-9---8-9-6-8---------6-------6-9-----8-9----8-9-11-----11-------11---|
G|-------------8-7-----7-------7-----------10------------10-------10---| x2
D|-----------------8-------8-------------------------8--------8--------|
A|---------------------------------------------------------------------|
E|---------------------------------------------------------------------|

            
            
Suggest correction
Creating personal tab
Creating personal tab
You can edit any tab online and save it as your Personal.

You can edit, replace or remove any tab part or add personal notes – all changes will be seen only by you.

Personal tabs can be accessed anytime from any device, even offline.
Learn more »
comments
print report bad tab
3 comments total.
0 reply
Johnny_H 50 Apr 27, 2006 12:28 AM

Really good but it think the 2nd note should be on fret 8 not 7.

0 reply
Riffman200 10 Nov 26, 2006 03:24 AM

Same here...great tab otherwise

0 reply
ni_zou11 10 Sep 20, 2017 05:59 PM

the 100% real one

guest
You may want to rate the tab now too:
select rating
Wanna post a correction for this tab? Suggest correction