Oops, an error
Loading. Please wait.
We have an official The Loner tab made by UG professional guitarists. Check out the tab »
×

The Loner tab

version 1
version 1

Whole song

Interactive

75,856 views 168 this week
5 commentsread comments
1 2 3 4 5
x 28
add to favorites
×
Save as Personal and add changes to this tab that will be seen only by you. Learn more ›
×
You can save this tab as Personal to edit and correct it or add notes. All changes will be seen only by you. Learn more »
launch autoscroll
font size
0
reset
how to read this tab
guitar tuner
backing track
0:00
0:00
edit
Autoscroll
slow
fast
+/-
esc
set tempo
stop
Author
Unregistered
This a great instrumental. I got lazy at the end and didnt transcribe a
couple of licks, sorry. Hopefully I didn't brutalize this too much.
Oh, I also left out the keyboard chords in the beginning and end(between
the fills). They sound like variations on G, not too tough to fig out.
Hope it works for you. Any corrections or adds would be appreciated.



e|---------------17----------17----------15--------------15-----------------|
B|--------15----------------------------------------------------------------|
G|------15--16>(18)-17>(18)17~--15>(16)15~--12-12-14>(16)~--14>(15)<(14)----|
D|----17--------------------------------------------------------------------|
A|--------------------------------------------------------------------------|
E|--------------------------------------------------------------------------|

             *pick
e|---------13------12-----------12------------------------------------------|
B|----------------------------------------15--------------------------------|
G|--14>(15)~-*<(14)~-9-9-11>(13)~-11-12h13~---15>(17)-14-12-----------------|
D|-------------------------------------w--------------------12~-------------|
A|--------------------------------------------------------------------------|
E|--------------------------------------------------------------------------|
end intro, main theme begins

e|--------------------------------------------------------------------------|
B|--------------------------------------------------------------------------|
G|--------------------------------------------------------------------------|
D|---5-7-7>(8)-----7>(8)----3-5-5\(7)--------5-3-5-----5~--5-7-7>(8)<(7)-5--|
A|-5----------5\(6)-------3----------3\(5)-1-------1-0----------------------|
E|--------------------------------------------------w-----------------------|

e|--------------------------------------------------------------------------|
B|--------------------------------------------------------------------------|
G|---------5>(7)<(5)-3h2------------5>(7)<(5)p3-h2-5------------------------|
D|-5\(7)~--------------w--5-3---5~---------------w-5-3-5~--5>(off)----------|
A|---------------------------h5--------------------5------------------------|
E|----------------------------w---------------------------------------------|

e|--------------------------------------------------------------------3~----|
B|---8-10-10>(11)~------11~---6-8-8>(9)<(8)---------4-6-6>(7)<(6)-----------|
G|-7---------------7h8------5--------------5\(7)~-3--------------3/(2)------|
D|------------------w-------------------------------------------------------|
A|--------------------------------------------------------------------------|
E|--------------------------------------------------------------------------|

e|--3-5-5>(6)<(5)-3-3\(5)~--------------------------------------------------|
B|-------------------------------8-10-10>(11)---------10~----6-8>(10)<(8)---|
G|--------------------------6>(7)------------5>(6)<(5)~---h5----w-----------|
D|---------------------------------------------------------w----------------|
A|--------------------------------------------------------------------------|
E|--------------------------------------------------------------------------|

e|----------------------------------3-3-5-5>(6)<(5)-3-9>(11)---8>(9)<8-------|
B|--------------------4-6->(7)-----------------------------------------11-10-|
G|-h5p(3)~--h3p(2)h(3)---w-----3p(2)~----------------------------------------|
D|--w--------w------------------w--------------------------------------------|
A|---------------------------------------------------------------------------|
E|---------------------------------------------------------------------------|

e|-----------------------------9-9>(10)<(9)-----------------10-11-13-10>(11--|
B|-8----------------------8-11--------------11-10-8----8---------------------|
G|---10---------------------------------------------10-----------------------|
D|------10>(11)<(10)p(8)-------------------------------w---------------------|
A|----------------------10---------------------------------------------------|
E|---------------------------------------------------------------------------|

e|<(10)---------------------------------------------------------------------|
B|------13-11-13>(14)<(13)-11h13p11\(10)-8-10-10>(11)<(10)-8----------------|
G|-----------------------------------------------------------10-8-7---------|
D|------------------------------------------------------------------10------|
A|---------------------------------------------------------------------10---|
E|--------------------------------------------------------------------------|

e|----------------------------10-11-13-10>(11)<(10)-------------------------|
B|--------------------------------------------------13~-11-13-13>(14)<(13)--|
G|--------------------------------------------------------------------------|
D|-8---10>(11)-10>(11)<(10)~------------------------------------------------|
A|---10---------------------------------------------------------------------|
E|--------------------------------------------------------------------------|

e|------------------------------------13>(14)~-17p15p14-15-15>(16)-15>(16)--|
B|-11h13p11\(10)------------------------------------------------------------|
G|--------------12-14-14>(15)<(14)-12---------------------------------------|
D|--------------------------------------------------------------------------|
A|--------------------------------------------------------------------------|
E|--------------------------------------------------------------------------|

e|-15>(16)<(15)---------15-17-17>(18)------------17----13-15-17-------------|
B|--------------14>(15)--------------13>(14)<(13)---13----------------------|
G|--------------------------------------------------------------15>(16)<15~-|
D|--------------------------------------------------------------------------|
A|--------------------------------------------------------------------------|
E|--------------------------------------------------------------------------|

e|--------------------------------------------15-15-17-17>(18)-19>(20)-20>(21-|
B|------------------16-18-18>(19)---------------------------------------------|
G|-15h17p15\(14)-15---------------14>(15)<(14)~-------------------------------|
D|----------------------------------------------------------------------------|
A|----------------------------------------------------------------------------|
E|----------------------------------------------------------------------------|

e|-21>(22)~--20>(21)<(20)-18-17-------------20>(22)<(20)-18-17--------------|
B|------------------------------20-18---20~--------------------20-18\(20)~--|
G|-----------------------------------h19----------------------------w-------|
D|-------------------------------------w------------------------------------|
A|--------------------------------------------------------------------------|
E|--------------------------------------------------------------------------|

{ this is a quick blues fill, not exact!!)---------------------------------|
-15------------------------------------------------------------------------|
---18p15-------15-18-15----------------------------------------------------|
--------17>(18)---------17-15---15h17-17>(18)<(17)-15----------------------|
------------------------------17---------------------17-15h(17)-17-15/(0)--|
---------------------------------------------------------------------------|
---------------------------------------------------------------------------|

e|-20>(21)<20-18-17------------------------------------20>(21)<20-18-17-------|
B|--------------------20-18--------------------------------------------18>(19-|
G|--------------------------17>(19)<(17)-----0h3-----/(0)---------------------|
D|---------------------------------------17~--w-wwwww-------------------------|
A|----------------------------------------------------------------------------|
E|----------------------------------------------------------------------------|

e|-----|-------------|-------------------------------------------------------|
B|-----|--6----------|-------------------------------------------8-10-10>(11-|
G|-----|5---5>(6)<(5)|-----------5>(6)<(5)-5>(6)-----------------------------|
D|-----|-------------|--5-7-7>(8)----------------8-5-5~---10>(11)------------|
A|-----|-------------|-5-----------------------------------------------------|
E|-----|-------------|-------------------------------------------------------|


e|-----------------------|----------------------------------------------------|
B|--------------8>(9)<(8)|------10>(11)~------11>(12)~---11-11-11-----11------|
G|-----------------------|-10-12---------10-12---------12--------12-10--12p10-|
D|-10>(11)<(10)~---------|----------------------------------------------------|
A|-----------------------|----------------------------------------------------|
E|-----------------------|----------------------------------------------------|

                                (pick these notes)
e|--quick blues-|--------12>(13)~(13)(13)(13)(13)<(12)----------------------|
B|----fill------|-----------------------------------------------------------|
G|---in-G-------|-11>(12)~---------------------------12-10h(12)h(15)--------|
D|-(sorry, im---|-----------------------------------------------w-----------|
A|---lazy)------|-----------------------------------------------------------|
E|--------------|-----------------------------------------------------------|

e|--------------------------------------------------------------------------|
B|-------------15-18-18>(19)~------------15-18-20>(21)----------------------|
G|--------15-17--------------------15-17------------------------------------|
D|--15-17---------------------15-17-----------------------------------------|
A|--------------------------------------------------------------------------|
E|--------------------------------------------------------------------------|



************************************

|  Don't strike any notes in () unless noted otherwise.
|  18>(19)<(18) represents a string bend up a half-step then back to orig.note
|  h   hammer on
|  w   quick pop with vib/bar
|  ~   let ring
|  /   slide towards nut
|  \   slide towards bridge


************************************

            
            
Suggest correction
Creating personal tab
Creating personal tab
You can edit any tab online and save it as your Personal.

You can edit, replace or remove any tab part or add personal notes – all changes will be seen only by you.

Personal tabs can be accessed anytime from any device, even offline.
Learn more »
comments
print report bad tab
5 comments total. Showing first comments.
+1 reply
##_Guitar-newb 30 Dec 01, 2004 07:00 PM

perfect...very nice man .love you for this

0 reply
boyofmystery 142 Jan 11, 2006 04:45 AM

sum of th intro was messed up but other wise...gd work

0 reply
LP Junior 20 May 20, 2006 01:11 PM

Very good. The fills you didn't tab are easy to hear out so it doesn't matter. And the last part is improvising so that doesn't matter as well.

guest
Wanna post a correction for this tab? Suggest correction