Oops, an error
Loading. Please wait.

Waiting In The Wings tab

780 views 1 this week
no commentswrite comment
1 2 3 4 5
2 more votes to show rating
add to favorites
×
Save as Personal and add changes to this tab that will be seen only by you. Learn more ›
×
You can save this tab as Personal to edit and correct it or add notes. All changes will be seen only by you. Learn more »
launch autoscroll
font size
0
reset
how to read this tab
guitar tuner
edit
Autoscroll
slow
fast
+/-
esc
set tempo
stop
Author
----------------------------------------------------------------------------------------------
                                  Waiting in the Wings – BBM
                                        (Moore/Bruce)
                                 Around the Next Dream [1994]
----------------------------------------------------------------------------------------------

Tabbed by: varannion
Email:     dm_hughes1@hotmail.com


‘Waiting in the Wings’ is the opening track from BBM’s first and only album ‘Around 
the Next Dream’ and is highly reminiscent of Cream’s ‘White Room’ and/or ‘Tales Brave 
Ulysses’. It’s certainly very creamy and features some wonderful wah-wah guitar by Gary 
Moore.

Tuning: standard



Intro

      D5              D5/F                G5
    let ring
e|-------------------------------------|-------------------------------------|
B|------------3------(3)------3(3)-----|-(3)--------------3------------------|
G|--------2-------------------2p0------|-(0)------0---------------------3b4--|
D|----0-------------------0------------|------0-------0-------------5---3b4--|
A|-------------------------------------|----------------------------3--------|
E|----------------0---1-------------2--|--3--------------(3)--3h5------------|

                                                             Intro solo 
      D5              D5/F                G5                 [with wah-wah]

e|-------------------------------------|----------------------------10--------|
B|------------3------(3)------3(3)-----|-(3)--------------3------------13-10--|
G|--------2-------------------2p0------|-(0)----------0------12b13------------|
D|----0-------------------0------------|----------0---------------------------|
A|-------------------------------------|------2-------------------------------|
E|----------------0---1-------------2--|--3-----------------------------------|


                 ~~~~                                               ~~~~
      D5             D5/F                      G5

e|-------------------10---------------------|--------------------------------------|
B|----13b15-13b15-------13------------------|--------------------------------------|
G|-------------------------12b13--12-10-----|--10-12--12b14-10h12-12----10---------|
D|--------------------------------------12--|------------------------------12\2----|
A|------------------------------------------|--------------------------------------|
E|------------------------------------------|--------------------------------------|


      D5             D5/F                   G5

e|---------------------------------------|---------------------------------------|
B|-------------------10-13--10h13p10-----|---------------------------------------|
G|----x-12b14------------------------12--|--10b11--------------------------------|
D|----x----------------------------------|--------12-----------------------------|
A|---------------------------------------|-----------12/10-8-10p7----------------|
E|---------------------------------------|---------------------------------------|

    Verse 1
      Dm                F                Gm

e|----1--------1----------------------|---------------------------------------|
B|----3--------3--------------1-------|---------------------------------------|
G|----2--------2--------------2-------|----------------------------------3b4--|
D|----0--------0-----------3-----3h5--|-(5)------------------------------3b4--|
A|------------------------------------|------------------------------3--------|
E|----------------------1-------------|------------3---3---(3)-3h5------------|


      Dm                F                    Gm

e|----------------------1--------1--------|--3--------3---------3--------3--------|
B|-------------3--------1--------1--------|--3--------3---------3--------3--------|
G|-------------2--------2--------2--------|--3--------3---------3--------3--------|
D|----0--------0--------3--------3--------|--5--------5---------5--------5--------|
A|----------------------------------------|---------------------------------------|
E|----------------------------------------|----------------3----------------------|


      Dm                F                    Gm

e|----1--------1--------1--------1--------|--3--------3--------3---------3--------|
B|----3--------3--------1--------1--------|--3--------3--------3---------3--------|
G|----2--------2--------2--------2--------|--3--------3--------3---------3--------|
D|----0--------0--------3--------2--------|--5--------5--------5---------5--------|
A|----------------------------------------|---------------------------------------|
E|----------------------------------------|-------------------------3-------------|


      Bb                 C                  Dm

e|---------------------------------------|----------------------------------------|
B|----3------3-----------5-------5-------|--6--------6--------6-------------------|
G|----3------3-----------5-------5-------|--7--------7--------7----------------7--|
D|----3------3-----------5-------5-------|--7--------7--------7----------------7--|
A|----1------1-----------3-------3-------|--5--------5--------5-----------3-------|
E|----------------0-------------------0--|-------------------------3h5------------|

    Verse 2
      Dm                F                    Gm

e|----5--------5--------1---------1-------|--3--------3--------3-------------------|
B|----6--------6--------1---------1-------|--3--------3--------3-------8b10--6-----|
G|----7--------7--------2---------2-------|--3--------3--------3----------------7--|
D|----7--------7--------3---------3--3h5--|--5--------5--------5-------------------|
A|----------------------------------------|----------------------------------------|
E|---------------------------1------------|----------------------------------------|


      Dm                F                    Gm

e|-------------10-------1--------1--------|--3---------------------10--------------|
B|-------------10-------1--------1--------|--3----------13b15-(15)----10----10-----|
G|---(7)\0-----10-------2--------2--------|--3---------------------------12----10--|
D|-------------12-------3--------3--------|--5-------------------------------------|
A|-------------12-------------------------|----------------------------------------|
E|----------------------------------------|----------------------------------------|


      Dm                F                    Gm

e|----------------------1--------1--------|--3--------3--------3---------3--------|
B|-------------3--------1--------1--------|--3--------3--------3---------3--------|
G|---(10)\2----2--------2--------2--------|--3--------3--------3---------3--------|
D|-------------0--------3--------2--------|--5--------5--------5---------5--------|
A|----------------------------------------|---------------------------------------|
E|----------------------------------------|-------------------------3-------------|


      Bb                C                   Dm

e|---------------------------------------|----------------------------------------|
B|----3------3-----------5-------5-------|--6-------------------------------------|
G|----3------3-----------5-------5-------|--7-------------------------------------|
D|----3------3-----------5-------5-------|--7-------------------------------------|
A|----1------1-----------3-------3-------|--5-------------------------------------|
E|----------------0-------------------0--|----------------------------------------|

    Chorus [with wah-wah]
      Am                                 C

e|--------------------0---------------|----------------------------------|
B|----------------1-------------------|------------------5---------------|
G|------------2-----------------------|----------5---------------5-------|
D|--------2------------------------0--|------5---------------------------|
A|----0----------------------(0)------|--3----------------------(3)---0--|
E|------------------------------------|----------------------------------|


      Em                                 Bb

e|------------------------------------|----------------------------------|
B|--------------------8---------------|------------------3---------------|
G|------------9-----------------------|----------3-----------------------|
D|--------9---------------------------|------3-------------------3-------|
A|----7----------------------(7)---0--|--1-------------------------------|
E|------------------------------------|----------------------------------|


      Am                                 C

e|------------------------------------|----------------------------------|
B|------------------------------------|----------------------------------|
G|----2-------------------------------|--5-------------------------------|
D|------------------------------------|----------------------------------|
A|------------------------------------|----------------------------------|
E|------------------------------------|----------------------------------|


      Em                                 Bb

e|------------------------------------|----------------------------------|
B|------------------------------------|--3-------------------------------|
G|----9--------------------(9)\4------|-----3-----3----3-----------------|
D|------------------------------------|--------3--3----1-----------------|
A|------------------------------------|-----------1----1-----------------|
E|------------------------------------|----------------------------------|

    Verse 3
      Dm                F                    Gm

e|--------------1-------1--------1--------|--3--------3--------3------------------|
B|----3---------3-------1--------1--------|--3--------3--------3------------------|
G|----2---------2-------2--------2--------|--3--------3--------3--12b14-10b11-12--|
D|---------0----0-------3--------3--------|--5--------5--------5------------------|
A|----------------------------------------|---------------------------------------|
E|----------------------------------------|---------------------------------------|


      Dm                F                    Gm

e|----------------------1--------1--------|--3------------------------------------|
B|----------------------1--------1--------|--3------------------------------------|
G|----------------------2--------2--------|--3--------7b10----------------(10)r7--|
D|----12------\0--------3--------3--------|--5--------7b10----------------(10)r7--|
A|----------------------------------------|---------------------------------------|
E|----------------------------------------|---------------------------------------|


      Dm                F                    Gm

e|----------------------1-----------------|-----------3----x----3-----------------|
B|----3--------3--------1--------6--------|-----------3----x----3----0----0-------|
G|----2--------2--------2-----------7-----|-(7)\2-----3----x----3----0----0-------|
D|----0--------0--------3-----------------|-----------5----x----5----0----0-------|
A|----------------------------------------|---------------------------------------|
E|----------------------------------------|---------------------------------------|

                                                                    Guitar solo 1
      Bb             C                       Dm

e|----1--------1--------3--------3--------|-------------------------------10-----|
B|----3--------3--------5--------5--------|--6----------------------------10-10--|
G|----3--------3--------5--------5--------|--7----------------------12b14--------|
D|----3--------3--------5--------5--------|--7-----------------------------------|
A|----------------------------------------|--5-----------------------------------|
E|----------------------------------------|--------------------------------------|


      Dm                 F

e|-----------10----10-------------------------|
B|--13b15-------13-10-------------------------|
G|---------------------12b13-12-—10h12p10-----|
D|----------------------------------------12--|
A|--------------------------------------------|
E|--------------------------------------------|

                          ~~~~
      Gm                                  Dm             F

e|-------------------------------------|----------------------------------|
B|-------------------------------------|--0-----8b12r8--6b8-6b7-----------|
G|----10-12-12b14-10h12-12----10-------|--0-(7)------------------7-5b6----|
D|-------------------------------12\0--|----(7)------------------------7--|
A|-------------------------------------|----------------------------------|
E|-------------------------------------|----------------------------------|


      Gm                            Dm            F

e|-------------------------------|----------------10-12—-10h12p10--------|
B|-------------------------------|----13-13b15--------------------13b14--|
G|---------------5--7----5-7/13--|---------------------------------------|
D|----6-5-3—-5/7-----------------|---------------------------------------|
A|-------------------------------|--0------------------------------------|
E|-------------------------------|---------------------------------------|


      Gm                                     Bb                  C

e|----10----------------------------------|-----------------------------------------------|
B|-------13-------------------------------|-----------------------------------------------|
G|-----------12b13-12--10h12p10-9---------|------------10-12h14--12-10h12p10p9------------|
D|---------------------------------12-10--|--12-10h12---------------------------12-10-----|
A|----------------------------------------|-------------------------------------------12--|
E|----------------------------------------|-----------------------------------------------|


      Dm                            Dm                      F

e|------------------------13-15--|-----13b16-----13b15-----13b15-----13b15----|
B|---------------------15--------|-----13b16-----13b15-----13b15-----13b15----|
G|-------------------0-----------|-(10)------(10)------(10)------(10)---------|
D|----10h12—-(12)\7--0-----------|-(10)------(10)------(10)------(10)---------|
A|-------------------------------|--------------------------------------------|
E|-------------------------------|--------------------------------------------|


      Gm                                       Dm           F

e|----13b15---13b15---(15)-13p10--13-13-13--|--10-----------10----10-12--10-------10-----|
B|----13b15---13b15---(15)------------------|--------13b15-----13-10--------13b14----10--|
G|------------------------------------------|--------------------------------------------|
D|------------------------------------------|--------------------------------------------|
A|------------------------------------------|--------------------------------------------|
E|------------------------------------------|--------------------------------------------|


      Gm                                                     Dm          F
   
e|-------------------------------10----10-------10--------|-------------------------------------|
B|----13p10-------10-13-------10-10-13-10-------10--------|-------------------------------------|
G|----------12b14-------12b14-------------12b14----12b14--|--10-------12-10h12p10-----10-12h14--|
D|--------------------------------------------------------|--------12-------------12------------|
A|--------------------------------------------------------|-------------------------------------|
E|--------------------------------------------------------|-------------------------------------|


      Gm                                          Bb               C

e|----10-----------10----12b13r12-10h12p10-----|--------13-15-17--15h17p15-13---15-----|
B|----10-10--13b14-------------------------13--|--13/15----------------------------15--|
G|--------------------0------------------------|---------------------------------------|
D|---------------------------------------------|---------------------------------------|
A|---------------------------------------------|---------------------------------------|
E|---------------------------------------------|---------------------------------------|


      Dm

e|--------20b22-(22)-20b22-20b22--------------|
B|--------------------------------------------|
G|--------------------------------------------|
D|--------------------------------------------|
A|--------------------------------------------|
E|--------------------------------------------|

    Chorus [with wah-wah]
      Am                                   C

e|----------------------12--------------|--------------------12--------------|
B|-------------13---------------13------|-----------13---------------13------|
G|--------14-------14-------14------14--|------12-------12-------12------12--|
D|--------------------------------------|------------------------------------|
A|--------------------------------------|------------------------------------|
E|--------------------------------------|------------------------------------|


      Em                                   Bb

e|----------------------12--------------|--------------------10--------------|
B|-------------12---------------12------|-----------11-----------------------|
G|--------12-------12-------12------12--|------10-------10-------------------|
D|--------------------------------------|------------------------------------|
A|--------------------------------------|------------------------------------|
E|--------------------------------------|------------------------------------|


      Am                                   C

e|----------------------12--------------|--------------------12--------------|
B|-------------13--------------13-------|-----------13---------------13------|
G|--------14-------14-------14------14--|------12-------12-------12------12--|
D|--------------------------------------|------------------------------------|
A|--------------------------------------|------------------------------------|
E|--------------------------------------|------------------------------------|


      Em                                   Bb

e|----------------------12--------------|------10---10--10---10--10--10--10--|
B|-------------12---------------12------|------11---11--11---11--11--11--11--|
G|--------12-------12-------12------12--|------10---10--10---10--10--10--10--|
D|--------------------------------------|------8----8---8----8---8---8---8---|
A|--------------------------------------|------------------------------------|
E|--------------------------------------|------------------------------------|


      Bb                         C           D5               D5/F
                                           let ring
e|----10--10--10--10---10--------12---\5--|----------1-----------------------|
B|----11--11--11--11---11--------13---\6--|--------------3---(3)------3------|
G|----10--10--10--10---10--------12---\5--|------2------------------------0--|
D|----8---8---8---8----8------------------|--0--------------------0----------|
A|----------------------------------------|----------------------------------|
E|----------------------------------------|-------------------1--------------|


      G5                                    D5               D5/F

e|---------------------------------------|----------------------------------|
B|----------------3----------------------|----------3-------(3)------3------|
G|---(0)------0--------------------------|------2--------------------0------|
D|--------0-----------0---------5---3b4--|--0--------------------0----------|
A|------------------------------3--------|----------------------------------|
E|----3--------------(3)--3h5------------|--------------0----1-----------2--|

                          Guitar solo 2
      G5                  [with wah-wah]        Dm            F

e|-------------------3-------------10--------|----------------10--------------------|
B|---(3)-------------3----------10----13p10--|--13b15---------10-----13b15----------|
G|---(0)------0-----------12b14--------------|-------------------(10)---------------|
D|--------0-------0--------------------------|-------------------(10)---------------|
A|-------------------------------------------|--------------------------------------|
E|----3--------------------------------------|--------------------------------------|


      Gm                                                         Dm             F

e|--------10----10-------10----10-------10--------------------|--------------------------------|
B|---(15)-10-13-10-------10-13-10-------10--------------------|-----------------0--------------|
G|-----------------12b14----------12b14----12b14-12-10-12b14--|--10-----------0-0-7/10-(10)----|
D|------------------------------------------------------------|----------12\0-0-0--------------|
A|------------------------------------------------------------|---------------0----------------|
E|------------------------------------------------------------|---------------0----------------|


      Gm                                        Dm                   F
 
e|-------------------------------------------|--------------------------------------|
B|-------------------------------------------|--------------------------------------|
G|----(10)h13----7-5----------------------5--|--7b10-7-(7)-----------5h7p5----------|
D|------------(0)--0--7-6-5--3---3--5-5/7----|-----------------------------7-7\5-3--|
A|------------(0)--------------5-------------|--------------------------------------|
E|-------------------------------------------|--------------------------------------|


      Gm                               Dm                  F

e|----------------------------------|------------------------------10------|
B|----------------------------------|---------------------------10-10-13b--|
G|--------5-----------------5-7/10--|--10/12-----------10-12b14------------|
D|----5/7----7\5p3------5/7---------|-----0--------------------------------|
A|-----------------5-(0)------------|-----0--------------------------------|
E|-------------------(0)------------|--------------------------------------|


      Gm                                                      Dm                   F

e|--------10----12b13-10----------10----13-10-------10-----|----------------10------------------|
B|----b15-10-10----------10-13b15----10-------10-13----10--|--13b15---------10-10-13b15-(15)-0--|
G|---------------------------------------------------------|---------------------------------0--|
D|---------------------------------------------------------|---------------------------------0--|
A|---------------------------------------------------------|------------------------------------|
E|---------------------------------------------------------|------------------------------------|


      Gm                                          Dm               F

e|----------------------10---------------------|--------------------------------------|
B|----(0)-13b15------------13------------------|--------------------------------------|
G|----(0)---------------------12b13--12-10-----|--10-----12-12b14--10-----------------|
D|----(0)----------------------------------12--|------------------------------12\0----|
A|---------------------------------------------|-----------------------------------0--|
E|---------------------------------------------|--------------------------------------|
 

      Gm                                         Dm              F

e|--------------------------------------------|-----------------------------------|
B|--------------------------------------------|-----------------------------------|
G|-------14b17-(17)r14--12h14p12-------12-14--|--10-9—-7h9p7-----7----------------|
D|----(0)------------------------15b16--------|--------------10—---10--7h10p7-----|
A|----(0)-------------------------------------|-------------------------------10--|
E|-----0--------------------------------------|-----------------------------------|


      Gm                                              Bb                C

e|-------------------------------------------------|----------13-15b17--15—13h15p13----------|
B|---------------------------------------------10--|--13b15-------------------------15-------|
G|-------------------10--12-10b11-----10-12b13-----|-----------------------------------15\7--|
D|-------------10-12--------------12---------------|-----------------------------------------|
A|----8-10-12--------------------------------------|-----------------------------------------|
E|-------------------------------------------------|-----------------------------------------|


      Dm               F                  Gm

e|---------------------10--------------|-----------------------------------------|
B|-------13b15-(15)-------13-----------|-----------------------------------------|
G|----0----------------------12b13-12--|--10h12p10----12b14-12-(12)-----10-------|
D|----0--------------------------------|-----------12----------------------12\2--|
A|----0--------------------------------|-----------------------------------------|
E|-------------------------------------|-----------------------------------------|


      Dm                F    

e|------13b15------r13--10h13p10-------10-----------|
B|-------------------------------13b14----10-13b14--|
G|--------------------------------------------------|
D|----0---------------------------------------------|
A|----0---------------------------------------------|
E|--------------------------------------------------|


      Gm

e|----10-12-10h12p10-----10------------------------------------------10--|
B|--------------------13----10-13p10-----10-----------------------10-----|
G|------------------------------------12----13-12p10--12----10-12--------|
D|-------------------------------------------------------12--------------|
A|-----------------------------------------------------------------------|
E|-----------------------------------------------------------------------|


          Dm            F                           Gm

e|----------------------13-----------------------|--13-15-15b17------15b17-15b17-15b17-15b17--|
B|--------14/15-(15)-15----15\3-5/14-------5/15--|-------------------15b17-15b17-15b17—15b17--|
G|-----------------------------------------------|--------------------------------------------|
D|-----------------------------------------------|--------------------------------------------|
A|-----------------------------------------------|--------------------------------------------|
E|-----------------------------------------------|--------------------------------------------|


      Bb                C                       Dm

e|----15b17---13--10-10-13b15-r13--10--------|--10--------------0-----------13-15--|
B|----15b17---------------------------13b15--|-----13b15--------0-9\7-13/15--------|
G|-------------------------------------------|-------------------------------------|
D|-------------------------------------------|-------------------------------------|
A|-------------------------------------------|-------------------------------------|
E|-------------------------------------------|-------------------------------------|


      Dm                 F                      Gm

e|----14b16----13b15-----13-10-----10\3------|-------13b15---r13—-10h13p10--------10--------|
B|-------------------------------------------|----(0)----------------------13b14-----13b15--|
G|-------------------------------------------|----(0)---------------------------------------|
D|-------------------------------------------|--0-------------------------------------------|
A|-------------------------------------------|--0-------------------------------------------|
E|-------------------------------------------|--0-------------------------------------------|


      Dm                 F

e|-------------10----------------------------------|
B|----13b15-------13-10--------10-13--10-------10--|
G|-----------------------12b14-----------12b14-----|
D|-------------------------------------------------|
A|-------------------------------------------------|
E|-------------------------------------------------|


      Gm

e|-------------------------------------------------|
B|------------------------------13-----------------|
G|----13-12-10-----10-12--12/14----14-14\12-10-----|
D|--------------12-----------------------------12--|
A|-------------------------------------------------|
E|-------------------------------------------------|


      Dm                  F                           Gm

e|------------------------10-----------------------|-----------------------------------------|
B|----------13b15-(15)----10-13p10-----------------|-----------------------------------------|
G|----------------------------------12h13p12p10----|--10b11----------------------------------|
D|----(12)--------------------------------------12-|---------12------------------------------|
A|-------------------------------------------------|-------------11p10p8—10b11—10-8--0-------|
E|-------------------------------------------------|---------------------------------0-------|


      Bb                      C

e|-------------------------------------------|
B|----------------------------------6--6-----|
G|---------------------5---5—-7p5h7----------|
D|---------------7p5h7---7-------------------|
A|----5p3h5p3h5------------------------------|
E|-------------------------------------------|






Intro


| D5          D5/F         | G5                       | D5          D5/F         |

| G5                       | D5          D5/F         | G5                       |

| D5          D5/F         | G5                       |



Verse 1


            Dm              F
She was standing in the dark
Gm
Waiting in the wings
Dm    F               Gm
Just around the next dream
             Dm           F
She was holding all the keys
   Gm
To set my heart free
  Bb       C          Dm
Behind the shadows of love



Verse 2


            Dm              F
From the distance I could see
    Gm
Her standing alone
Dm           F            Gm
Shine like a jewel in the night
Dm                F
Hidden from the eyes
  Gm
A thief of the soul
  Bb       C          Dm7
Behind the shadows of love



Chorus


Am                      C
Set me on fire with the stories you tell
Em                   Bb
Drown in an ocean of dreams
Am                    C
Close to the flame on wings of desire
Em                Bb
Nothing’s what it seems



Verse 3


            Dm     F
She was waiting outside
     Gm
With arms open wide
Dm       F                Gm
Ready to break my heart’s fall
       Dm                   F
Oh the lightening in her eyes
   Gm
I learned how to fly
  Bb       C          Dm
Behind the shadows of love



Guitar solo 1


| Dm          F            | Gm                       | Dm          F            |

| Gm                       | Dm          F            | Gm                       |

| Bb          C            | Dm                       | Dm          F            |

| Gm                       | Dm          F            | Gm                       | 

| Dm          F            | Gm                       | Bb          C            | 

| Dm                       |



Chorus


Am                      C
Set me on fire with the stories you tell
Em                   Bb
Drown in an ocean of dreams
Am                    C
Close to the flame on wings of desire
Em                Bb            C
Nothing’s what it seems
 

| D5          D5/F         | G5                       | D5          D5/F         |

| G5                       |



Guitar solo 2


| Dm          F            | Gm                       | Dm          F            |

| Gm                       | Dm          F            | Gm                       |

| Dm          F            | Gm                       | Dm          F            |

| Gm                       | Dm          F            | Gm                       |

| Dm          F            | Gm                       | Dm          F            |

| Gm                       | Bb          C            | Dm                       | 

| Dm          F            | Gm                       | Dm          F            | 

| Gm                       | Dm          F            | Gm                       | 

| Bb          C            | Dm                       | Dm          F            | 

| Gm                       | Dm          F            | Gm                       | 

| Dm          F            | Gm                       | Bb          C            | 






| /  slide up
| \  slide down
| b  bend up
| r  release bend
| h  hammer-on
| p  pull-off
| ~  vibrato
| x  mute note



================================================================================  18 January 2008

            
            
Suggest correction
Creating personal tab
Creating personal tab
You can edit any tab online and save it as your Personal.

You can edit, replace or remove any tab part or add personal notes – all changes will be seen only by you.

Personal tabs can be accessed anytime from any device, even offline.
Learn more »
Give kudos to tab author, rate the tab!
1 2 3 4 5
comments
print report bad tab
guest
You may want to rate the tab now too:
select rating
Wanna post a correction for this tab? Suggest correction