Oops, an error
Loading. Please wait.

Woman Woman bass

40 views 1 this week
no commentswrite comment
1 2 3 4 5
2 more votes to show rating
add to favorites
×
Save as Personal and add changes to this tab that will be seen only by you. Learn more ›
×
You can save this tab as Personal to edit and correct it or add notes. All changes will be seen only by you. Learn more »
launch autoscroll
font size
0
reset
guitar tuner
edit
Autoscroll
slow
fast
+/-
esc
set tempo
stop
Woman Woman
Third single release by Gary Puckett and The Union Gap in 1968
Reached number 48 UK charts and number 4 Billboard Hot 100.
Bass performance Kerry Chater. Tab by bass50611. Welcome to my tab of
This terrific song from the late sixties. Not exact to original more
Of as I see it and it does fit the song.

Intro/Chorus 1:
G|-----------------------------------------------------------------|
D|---------------------------4---4-4---5---5-5---4---4-4---5---5-5-|
A|-0-0-0-0-0-0-0-0---5--5-5-----4---------5---------4---------5----|
E|-----------------------------------------------------------------|

G|---------------------------------------------4-7-----------------|
D|-4---4-4------------------------------4-7---5------4-7---5-------|
A|----4-----7---7-7-7------------------5------------5--------2-3-4-|
E|--------------------5-5-5-5-5-5-5-5------------------------------|

Verse 1:
G|--------------------------------------------------------------|
D|---------4--4-4---5--5-5--------------------------------------|
A|-5--5-5--------------------------5--5------7--7-7--7---5--5-5-|
E|-------------------------5--5-5------7---7--------------------|

G|------7-4------------------------------------|
D|---------7-4---------4--4-4---5--5-5---------|
A|-5--5---------5--5-5-------------------------|
E|--------------------------------------3--3-3-|

Chorus 1: (Follow The Beat Of The Snare Drum)
G|--------------------------------------------------------------|
D|------------4--4--4--4---5--5--5--5---4--4--4--4---5--5--5--5-|
A|-5--5--5--5---------------------------------------------------|
E|--------------------------------------------------------------|

G|------------------------------------------------4-7----------------|
D|-4--4--4--4------------------------------4-7---5-----4-7---5-------|
A|-------------7---7-7-7------------------5-----------5--------2-3-4-|
E|-----------------------5-5-5-5-5-5-5-5-----------------------------|

Verse 2:
G|-----------------------------------------------------------------|
D|---------4--4-4---5--5-5---7--7-7--------------------------------|
A|-5--5-5----------------------------5--5-------7--7-7--7---5--5-5-|
E|----------------------------------------7---7--------------------|

G|------7-4------------------------------------|
D|---------7-4---------4--4-4---5--5-5---------|
A|-5--5---------5--5-5-------------------------|
E|--------------------------------------3--3-3-|

Chorus 2: (Follow The Beat Of The Snare Drum)
G|--------------------------------------------------------------|
D|------------4--4--4--4---5--5--5--5---4--4--4--4---5--5--5--5-|
A|-5--5--5--5---------------------------------------------------|
E|--------------------------------------------------------------|

G|---------------------------------------------------4-7------------|
D|-4--4--4--4--------------------------------4-7---5----------------|
A|-------------7---7-7-7-------------------5-------------5--5--5--6-|
E|------------------------5-5-5-5-5-5-5-5---------------------------|

Interlude:
G|----------------------------------------------|
D|---------4--5--5--5--5------------------------|
A|-7--7--7---------------5--5--5--5-------------|
E|-----------------------------------7--7--7--7-|

Verse 3: (Key Change To E)
G|-------------------------------------------------------------|
D|-------------------------------------------------------------|
A|-7--7-7---------------------------7--7-------9--9-9---7--7-7-|
E|---------4--4-4---5--5-5---7--7-7------9---9---------7-------|

G|------9-6------------------------------------|
D|---------9-6---------6--6-6---7--7-7---------|
A|-7--7---------7--7-7-------------------------|
E|--------------------------------------5--5-5-|

Chorus: (Follow The Beat Of The Snare Drum)
G|--------------------------------------------------------------|
D|------------6--6--6--6---7--7--7--7---6--6--6--6---7--7--7--7-|
A|-7--7--7--7---------------------------------------------------|
E|--------------------------------------------------------------|

G|---------------------------------------|
D|-6--6--6--6----------------------------|
A|-------------9---9-9-9-----------------|
E|-----------------------7-7-7-7-7-7-7-7-|

Outro:
G|--------------------------------------------------------------|
D|------------6--6--6--6---7--7--7--7---6--6--6--6---7--7--7--7-|
A|-7--7--7--7---------------------------------------------------|
E|--------------------------------------------------------------|

                                   (Song Fades Out)
G|---------------------------------------|
D|-6--6--6--6----------------------------|
A|-------------9---9-9-9-----------------|
E|-----------------------7-7-7-7-7-7-7-7-|



            
            
Suggest correction
Creating personal tab
Creating personal tab
You can edit any tab online and save it as your Personal.

You can edit, replace or remove any tab part or add personal notes – all changes will be seen only by you.

Personal tabs can be accessed anytime from any device, even offline.
Learn more »
Give kudos to tab author, rate the tab!
1 2 3 4 5
comments
print report bad tab
guest
You may want to rate the tab now too:
select rating
Wanna post a correction for this tab? Suggest correction