Oops, an error
Loading. Please wait.
We have an official I Dont Want To Be tab made by UG professional guitarists. Check out the tab »
×
13,873 views 12 this week
4 commentsread comments
1 2 3 4 5
x 9
add to favorites
×
Save as Personal and add changes to this tab that will be seen only by you. Learn more ›
×
You can save this tab as Personal to edit and correct it or add notes. All changes will be seen only by you. Learn more »
launch autoscroll
font size
0
reset
guitar tuner
edit
Autoscroll
slow
fast
+/-
esc
set tempo
stop
Into:
g----------------------------------------------------------------------------|
d----------------------------------------------------------------------------|
a----------------------------------------------------------------------------|
e----5-7-5-7-5-7-5-7-5-5-7-5-7-5-7-5-7-5-7-5-5-7------repeat-----------------|

chours: I dont want to be any thing.
g----------------------------------------------------------------------------|
d----------------------------------------------------------------------------|
a-------666611113311----666611113311-----------------------------------------|
e---4444------------4444-----------------------------------------------------|

Im surrounded by liars.
g----------------------------------------------------------------------------|
d----------------------------------------------------------------------------|
a----------------------------------------------------------------------------|
e---5-7-5-7-5-7-5-7-5-5-7-5-7-5-7-5-7-5-7-5-5-7------repeat------------------|

Can i have your attention please.
g----------------------------------------------------------------------------|
d----------------------------------------------------------------------------|
a----------------------------------------------------------------------------|
e---3333--3333-3333----------------------------------------------------------|

I came from a mountian.
g----------------------------------------------------------------------------|
d----------------------------------------------------------------------------|
a---310-310-310-----6666111--------------------------------------------------|
e---------------4444---------------------------------------------------------|

g----------------------------------------------------------------------------|
d----------------------------------------------------------------------------|
a-------666611113311----666611113311-----------------------------------------|
e---4444------------4444------------------------repeat till fade out---------|

Please rate

            
            
Suggest correction
Creating personal tab
Creating personal tab
You can edit any tab online and save it as your Personal.

You can edit, replace or remove any tab part or add personal notes – all changes will be seen only by you.

Personal tabs can be accessed anytime from any device, even offline.
Learn more »
comments
print report bad tab
4 comments total. Showing first comments.
+3 reply
unerdanielson 52 Feb 10, 2007 08:00 AM

I've seen a lot of tabs including guitar with the verse riff as

g-------------------------------------------------|
d-------------------------------------------------|
a-------------------------------------------------|
e----5-7-5-7-5-7-5-7-5-5-7-5-7-5-7-5-7-5-7-5-5-7--|

but I think it's actually played semi-tone higher like this:

g-------------------------------------------------|
d-------------------------------------------------|
a-------------------------------------------------|
e----6-8-6-8-6-8-6-8-6-6-8-6-8-6-8-6-8-6-8-6-6-8--|

There may be a fill in the "Can I have your attention please" section that's missing but apart from that good tab

0 reply
bass531 10 Sep 17, 2008 01:30 AM

good tab :)

+1 reply
flynx22 30 Sep 20, 2008 04:01 AM

yeah i agree it should be 6-8-6-8 and not 5-7-5-7
Great tab other than that.... good job!

guest
Wanna post a correction for this tab? Suggest correction