Oops, an error
Loading. Please wait.

Nervous tab

version 1
version 1

Whole song

  • This is the studio version tabbed out beginning to... Show more

Interactive

11,944 views 312 this week
4 commentsread comments
1 2 3 4 5
x 9
add to favorites
×
Save as Personal and add changes to this tab that will be seen only by you. Learn more ›
×
You can save this tab as Personal to edit and correct it or add notes. All changes will be seen only by you. Learn more »
launch autoscroll
font size
0
reset
how to read this tab
guitar tuner
edit
Autoscroll
slow
fast
+/-
esc
set tempo
stop
[Intro]
   Am7        F                  C                   C/B
e|---------------------------|--------------------------------|
B|----1----1-------1---------|-----1-----1-------1-----1------|
G|-------0----0h2---2p0---0--|---0----0-------------0---------|
D|---2----2------3------3----|----2----2--------2----2--------|
A|-0----0--------------------|--3----3------3------2----------|
E|------------1--------------|--------------------------------|

   Am7        F                 C                   G6
e|----3/0--------------------|--------------------------------|
B|----1----1-------1---------|------1-----1-----1------1------|
G|-------0----0h2---2p0---0--|----0----0------0-----0---------|
D|---2----2------3------3----|-----2----2------2-----0--------|
A|-0----0--------------------|--3-----3-----3-----------------|
E|------------1--------------|--------------------3-----------|

[Verse 1]
  Am7           F             C                  C/B           (3x)              
e|------------------------------------------------------------|                        
B|-------1-----1-----1------1-------1-----1-------1-----1-----| 
G|---0------0-----2------2-------0-----0-------0-----0--------|                  
D|----2------2-----3------3-------2-----2-------2-----2-------|                    
A|-0------0--------------------3-----3-------3-----2----------|                   
E|--------------1-----1---------------------------------------|                  
I promise...    hold you...   cold out...                                         
  When we...    winter...  in spring...                                          
..lately...     thinking...   told you...                                        
                                                                                 
                                                                                
  F                           C                 (C/B second time)                
e|----------------------------------------------------------|                         
B|------1-----1-----1------1------1-----1------1-----1------|               
G|---2-----2-----2------2------0----0-0-----0-----0---------|                    
D|----3-----3-----3------3------2----2-------2-----2--------|                    
A|----------------------------3----3-------3-----2----------|                
E|-1-----1------1-----1-------------------------------------|               
..every time i see you...     sings...
                                                                            (x2)     
Alternatively Gavin occasionally plays this instead of the last line:            
  F                           C                   C/B                             
e|----------------------0-----------------------------------|                      
B|------1-----1-----1/3------------1-----1-------1-----1----|                       
G|---2-----2-----2---------2----0-----0-------0-----0-------|                      
D|----3-----3-----3------3-------2-----2-------2-----2------|                  
A|----------------------------3-----3-------3-----2---------|                 
E|-1-----1------1-----1-------------------------------------|                  
..guess we...   expiration    date

   F            Fm             C                                              
e|---------------------------|----------(3)----(0)-----------|  
B|------1-----1-----1------1-|-----1-----1------1-----1------|
G|---2-----2-----1------1----|--0----0-0-----0-----0---------|      
D|----3-----3-----3------3---|---2----2-------2-----2--------|
A|---------------------------|-3----3-------3-----3----------|
E|-1-----1------1-----1------|-------------------------------|
So I won't...   love you...   late...

(I prefer strumming the Chorus and the second Verse although 
you could also keep playing in the same fashion as verse 1)

[Chorus]
Am  F      C      C/B
Ooooohhhooooohhhhhh
Am  F      C      C/B
Oooohhhhhhoooooohhhhh
Am  F      C      C/B
Ooooooohhhooooooohhhh
F        Fm      C    C/B
Oooohhhooohhhhhooohhhhh

[Verse 2]
Am                   F             C     C/B
'Cause every time I saw you I got nervous
Am                   F         C   C/B
Shivering and shaking at the knees
Am                   F             C        C/B
And just like every song I haven't heard yet no
F                    Fm             C
I didn't know the words in front of me
           G         Am 
In front of me, and oh
        F            G   Am
I don't want to know
               C   C/B  F
Who'll take you home?
               C   C/B  F
Who'll take you home?
                Am    C/B   F
Who'll take you home, home, home?
     Fm 
If I let you go

[Chorus]
Am  F      C      C/B
Ooooohhhooooohhhhhh
Am  F      C      C/B
Oooohhhhhhoooooohhhhh
Am  F      C      C/B
Ooooooohhhooooooohhhh
F        Fm      C    C/B
Oooohhhooohhhhhooohhhhh

[Verse 3]
  Am            F             C                  C/B             (3x)              
e|-----------------------------------------------|-------------|                       
B|-------1----1-----1------1------1-----1------1-|------1------|                        
G|---2-----2-----2------2------0----0-0-----0----|---0---------|                    
D|----2-----2-----3------3------2----2-------2---|----2--------|                   
A|-0-----0--------------------3----3-------3-----|--2----------|                
E|--------------1-----1--------------------------|-------------|                    
  Now that...   someone...    shoulders...                                        
..winter...     colder...     own...                                            
  Maybe...      meet...       older...                                                 
                                                                                              
  F                                        Fm                                      
e|(0)---------------------------------------------------------------| 
B|-3----1-----1-----1------1------1-----1------1-----1-----1-----1--| 
G|---------2------------2-------------2-----------1-----------1-----|  
D|----3-----3-----3------3------3----3-------3-----3-----3-----3----|
A|------------------------------------------------------------------| 
E|-1-----1------1-----1-------1----1-------1-----------1------------|
  Maybe  we    wont..                   So I won't say...

   Am        F                 C                   C/B
e|-----------------------------------------------------------|
B|----1----1-------1--------------1-----1-------1-----1------|
G|-------2----0h2---2p0---0-----0----0-0-----------0---------|
D|---2----2------3------3--------2----2--------2----2--------|
A|-0----0----------------------3----3-------3-----2----------|
E|------------1----------------------------------------------|
     don't                                        No you...

  Am            F             C                  C/B            
e|----------------------------------------------------------|                      
B|-------1----1-----1------1------1-----1------1-----1------|                   
G|---2-----2-----2------2------0----0-0-----0-----0---------|                    
D|----2-----2-----3------3------2----2-------2-----2--------|                   
A|-0-----0--------------------3----3-------3-----2----------|                    
E|--------------1-----1-------------------------------------|
..don't

   F            Fm            C                                              
e|-------------------------------------(3)----(0)--------0---| 
B|------1-----1-----1------1------1-----1------1-----1---1---|
G|---2-----2-----1------1------0----0-0-----0-----0------0---|   
D|----3-----3-----3------3------2----2-------2-----2-----2---|
A|----------------------------3----3-------3-----3-------3---|
E|-1-----1------1-----1--------------------------------------|

No I won't...   say I love... don't...


************************************

| h    Hammer-on
| p    Pull-off
| /    Slide up
| (n)  Ghost note

************************************

            
            
Suggest correction
Creating personal tab
Creating personal tab
You can edit any tab online and save it as your Personal.

You can edit, replace or remove any tab part or add personal notes – all changes will be seen only by you.

Personal tabs can be accessed anytime from any device, even offline.
Learn more »
comments
print report bad tab
4 comments total. Showing first comments.
0 reply
EsmeeN6 53 Jan 13, 2017 05:26 PM

the tab is upside down

0 reply
TirrojK 74 Jan 15, 2017 04:56 AM

Wow you are right. Can't believe I made such a mistake. Thank you for your reply, it has been fixed!

0 reply
akilakavisinghe 10 Feb 13, 2017 08:35 PM

haha! happens to the best of us!

guest
You may want to rate the tab now too:
select rating
Wanna post a correction for this tab? Suggest correction