Oops, an error
Loading. Please wait.

Zealot tab

217 views 1 this week
no commentswrite comment
1 2 3 4 5
2 more votes to show rating
add to favorites
×
Save as Personal and add changes to this tab that will be seen only by you. Learn more ›
×
You can save this tab as Personal to edit and correct it or add notes. All changes will be seen only by you. Learn more »
launch autoscroll
font size
0
reset
how to read this tab
guitar tuner
edit
Autoscroll
slow
fast
+/-
esc
set tempo
stop
About this tab version
How I played it in my cover. Was this info helpful? Yes No
Gemini Syndrome: Zealot

Transcribed by: mysticguitar77

Facebook: https://www.facebook.com/MysticGuitar77
YouTube Channel: https://www.youtube.com/user/MysticGuitar77

Date last modified: December 12, 2016

Tuning: Drop A (A,E,A,D,F#,B)

Intro
 B|--------------------------------------------------------------------------------------|
F#|--------------------------------------------------------------------------------------|
 D|-------10-------------10--------10\9-----10\9-------10-------------10--------10\9-----|
 A|-------x--------------x---------x--x-----x--x-------x--------------x---------x--x-----|
 E|-0-0-0-8--0-0---0-0-0-8--0--0-0-8\\7-0-0-8\\7-0-0-0-8--0-0---0-0-0-8--0--0-0-8\\7-----|
 A|-0-0-0----0-0---0-0-0----0--0-0------0-0------0-0-0----0-0---0-0-0----0--0-0------000-|
    * * *    * *   * * *    *  * *      * *      * * *    * *   * * *    *  * *      ***

Riff 1
 B|-------------------------------------------------------------------------------------------|
F#|-------------------------------------------------------------------------------------------|
 D|-------10-------------10--------10\9-----10\9-------10-------------10--------10\9-----10\9-|
 A|-------x--------------x---------x--x-----x--x-------x--------------x---------x--x-----x--x-|
 E|-0-0-0-8--0-0---0-0-0-8--0--0-0-8\\7-0-0-8\\7-0-0-0-8--0-0---0-0-0-8--0--0-0-8\\7-0-0-8\\7-|
 A|-0-0-0----0-0---0-0-0----0--0-0------0-0------0-0-0----0-0---0-0-0----0--0-0------0-0------|
    * * *    * *   * * *    *  * *      * *      * * *    * *   * * *    *  * *      * *

Riff 2   "Not too concerned with deserting..."
 B|---------------------------------------|
F#|---------------------------------------|
 D|---------------------------------------|
 A|-------3------------------3--------5/7-|
 E|-0-0-0-3-0-0--0--0-0--0-0-3-0--0-0-3/5-|
 A|-0-0-0-3-0-0--0--0-0--0-0-3-0--0-0-----|
    * * *   * *  *  * *  * *   *  * *

Play Riff 2 x4   "Take me away from the verdict..."

Fill 1 (w/ phaser)
 B|-----------------|
F#|-----------------|
 D|-----------------|
 A|---------3h5-----|
 E|-----3h5-----3h5-|
 A|-3h5-------------|

Riff 3 (w/ phaser)   "We will believe, whatever you think we need..."
 B|-------------------------------------------------------------------------------------------|
F#|-------------------------------------------------------------------------------------------|
 D|-3-3-----3-3-----5-5-----5-5-----7-7-----7-7-----7-7-----7-7-------------------------------|
 A|-x-x-----x-x-----x-x-----x-x-----x-x-----x-x-----x-x-----x-x-------------------------------|
 E|-1-1-----1-1-----3-3-----3-3-----5-5-----5-5-----5-5-----5-5-----1-1-1-1-1-1-1-1-3-3-3-3-3-|
 A|-----0-0-----0-0-----0-0-----0-0-----0-0-----0-0-----0-0-----0-0-1-1-1-1-1-1-1-1-3-3-3-3-3-|
        * *     * *     * *     * *     * *     * *     * *     * * * * * * * * * * * * * * *

Riff 4   "Everybody's scratching just to get to the surface..."
 B|------------------------------------------------------------------------------------|
F#|------------------------------------------------------------------------------------|
 D|---7--7-7-7--5/7----------------------------------------------------5-5-5-5-5/7-7-7-|
 A|---7--7-7-7--5/7-5---5h7-5--5-5-5-7-8-8h10-8--8-8-10-8-10--10-10-10-x-x-x-x-x-x-x-x-| 
 E|-0-5--5-5-5--3/5-5-5-5---5--5-5-5-7-8-8----8--8-8-8--8-8---8--8--8--3-3-3-3-3/5-5-5-|
 A|-0---------------5-5-5---5--5-5-5-7-8-8----8--8-8-8--8-7---7--7--7------------------|
                      *        * *   *           * *

Play Riff 4 x2   "Everybody wants to know their ending is perfect..."

Riff 5   "We don't believe in you..."
 B|---------------------------------------------------------------------|
F#|---------------------------------------------------------------------|
 D|---------------------------------------------------------------------|
 A|---------------------------------------------------------------------| * = harmonic
 E|---------------------------------------------------------------------|
 A|-0-12*-12*-0-12*-12*-12*-0--12*-0-0-12*-0--0-12*-12*-0-12*-12*-12*-0-|

Play Riff 2 x4   "Taking a meal from the beggar..."
Play Fill 1 x1
Play Riff 3 x1   "We will believe, whatever you think we need..."
Play Riff 4 x2   "Everybody's scratching just to get to the surface..."
Play Riff 5 x1   "We don't believe in you..."

Riff 6
 B|-----------------------------------------------------------|
F#|-----------------------------------------------------------|
 D|-----------------------------------------------------------|
 A|-----------------------------------------------------------|
 E|-----------------------------------------------------------|
 A|-3p0-0-3p0-0-3p0-0-3p0-0-3p0-0-3p0-0-3p0-0-3-5-5-0-3-5-3-0-|

 B|------------------------------------------------------------|
F#|------------------------------------------------------------|
 D|------------------------------------------------------------|
 A|------------------------------------------------------------|
 E|------------------------------------------------------------|
 A|-3p0-0-3p0-0-3p0-0-3p0-0-3p0-0-3p0-0-3p0-0-12-10-8-0-10-8-7-|

Play Riff 6 x3   "You are a fools prophet and forsaker..." (w/ obvious rest added in there)
Play Riff 3 x1   "You have deceived, with every breath you breathe..."
Play Riff 4 x2   "Everybody's scratching just to get to the surface..."
Play Riff 5 x1   "We don't believe in you..."
Play Riff 6 x1   "We don't believe in you!!"

Ending
 B|---------------------------------------------------|
F#|---------------------------------------------------|
 D|---------------------------------------------------|
 A|---------------------------------------------3-----|
 E|---------------------------------------0-0-0-3-0-0-|
 A|-0-12-10-8-0-10-8-7-0-12-10-8-0-10-8-7-0-0-0-3-0-0-|
                                          * * *   *

Enjoy!!



            
            
Suggest correction
Creating personal tab
Creating personal tab
You can edit any tab online and save it as your Personal.

You can edit, replace or remove any tab part or add personal notes – all changes will be seen only by you.

Personal tabs can be accessed anytime from any device, even offline.
Learn more »
Give kudos to tab author, rate the tab!
1 2 3 4 5
comments
print report bad tab
guest
You may want to rate the tab now too:
select rating
Wanna post a correction for this tab? Suggest correction