Oops, an error
Loading. Please wait.
We have an official Land Of Confusion tab made by UG professional guitarists. Check out the tab »
×

Land Of Confusion bass

version 3
version 3

Whole song

Interactive

by Genesis
1,121 views 12 this week
no commentswrite comment
1 2 3 4 5
1 last vote to show rating
add to favorites
×
Save as Personal and add changes to this tab that will be seen only by you. Learn more ›
×
You can save this tab as Personal to edit and correct it or add notes. All changes will be seen only by you. Learn more »
launch autoscroll
font size
0
reset
guitar tuner
edit
Autoscroll
slow
fast
+/-
esc
set tempo
stop
Author
Difficulty
Land of confusion
by GENESIS

Tabbed by: Banthar (banthar_farnwall@yahoo.de)

4-String Bass, Standard Tuning



Intro:
G       | ----------------------------------------------------------------------------------|
D       | -------6--------------6-------------6--------------6------------------------------|
A       | ---6------6--------6------6------6------6-------6------6--------------------------|  1x
E       | -4--4---4---4--4-4--4---4---4--4--4---4--4--4-4--4---4---4------------------------|

Verse:
G       | ----------------------------------------------------------------------------------|
D       | ----------------------------------------------------------------------------------|
A       | 6-6-6....6-6-6--------------------------------6-6-6....6-6-6----------------------|  2x
E       | ---------------4-4-4....4-4-4--7-7-7....7-7-7-------------------------------------|

Chorus:
G       | ----------------------------------------------------------------------------------|
D       | -----------------4-4-4-6-6-6-6-6--------------------------------------------------|
A       | -4-4-4-6-6-6-6-6-----------------4-4-4-6-6-6-6-6--2-2-2-2--4-4-4-4----------------|  2x
E       | ----------------------------------------------------------------------------------|

Intermezzo:
G       | ----------------------------------------------------------------------------------|
D       | --4-4-4-4---3-3-3-3---4-4-4-4--3-3-3-3--------------------------------------------|
A       | -6-6-------4-4-------6-6------4-4-------------------------------------------------|  2x
E       | ----------------------------------------------------------------------------------|

Intro:
G       | ----------------------------------------------------------------------------------|
D       | -------6--------------6-------------6--------------6------------------------------|
A       | ---6------6--------6------6------6------6-------6------6--------------------------|  1x
E       | -4--4---4---4--4-4--4---4---4--4--4---4--4--4-4--4---4---4------------------------|

Verse:
G       | ----------------------------------------------------------------------------------|
D       | ----------------------------------------------------------------------------------|
A       | 6-6-6....6-6-6--------------------------------6-6-6....6-6-6----------------------|  2x
E       | ---------------4-4-4....4-4-4--7-7-7....7-7-7-------------------------------------|

Chorus:
G       | ----------------------------------------------------------------------------------|
D       | -----------------4-4-4-6-6-6-6-6--------------------------------------------------|
A       | -4-4-4-6-6-6-6-6-----------------4-4-4-6-6-6-6-6--2-2-2-2--4-4-4-4----------------|  2x
E       | ----------------------------------------------------------------------------------|

Intermezzo:
G       | ----------------------------------------------------------------------------------|
D       | --4-4-4-4---3-3-3-3---4-4-4-4--3-3-3-3--------------------------------------------|
A       | -6-6-------4-4-------6-6------4-4-------------------------------------------------|  2x
E       | ----------------------------------------------------------------------------------|

Intro:
G       | ----------------------------------------------------------------------------------|
D       | -------6--------------6-------------6--------------6------------------------------|
A       | ---6------6--------6------6------6------6-------6------6--------------------------|  1x
E       | -4--4---4---4--4-4--4---4---4--4--4---4--4--4-4--4---4---4------------------------|

Break:
G       | ---5------------3--5---5----------3-5-3-----5-------------------------------------|
D       | --------------5-----------------5---------------------------------------3---------|
A       | -3-----1-3-----------3-----1-3------------3-----1-3--3---1-3----6--5--3-----------|  2x
E       | -----3-------------------3--------------------3--------3--------------------------|

Breakend...
G       | ----------------------------------------------------------------------------------|
D       | ----------------------------------------------------------------------------------|
A       | -------2----2----2--4--2--4--2--4--2--4----6--------------------------------------|  1x
E       | -4--------------------------------------------------------------------------------|

Verse:
G       | ----------------------------------------------------------------------------------|
D       | ----------------------------------------------------------------------------------|
A       | 6-6-6....6-6-6--------------------------------6-6-6....6-6-6----------------------|  2x
E       | ---------------4-4-4....4-4-4--7-7-7....7-7-7-------------------------------------|

Chorus:
G       | ----------------------------------------------------------------------------------|
D       | -----------------4-4-4-6-6-6-6-6--------------------------------------------------|
A       | -4-4-4-6-6-6-6-6-----------------4-4-4-6-6-6-6-6--2-2-2-2--4-4-4-4----------------|  2x
E       | ----------------------------------------------------------------------------------|

Intermezzo:
G       | ----------------------------------------------------------------------------------|
D       | --4-4-4-4---3-3-3-3---4-4-4-4--3-3-3-3--------------------------------------------|
A       | -6-6-------4-4-------6-6------4-4-------------------------------------------------|  2x
E       | ----------------------------------------------------------------------------------|
        
Intro:
G       | ----------------------------------------------------------------------------------|
D       | -------6--------------6-------------6--------------6------------------------------|
A       | ---6------6--------6------6------6------6-------6------6--------------------------|  1x
E       | -4--4---4---4--4-4--4---4---4--4--4---4--4--4-4--4---4---4------------------------|

G       | -------------|
D       | -------------|
A       | -4---6-------|
E       | -------------|


Great song for bass!
Enjoy. Comments on the base...

            
            
Suggest correction
Creating personal tab
Creating personal tab
You can edit any tab online and save it as your Personal.

You can edit, replace or remove any tab part or add personal notes – all changes will be seen only by you.

Personal tabs can be accessed anytime from any device, even offline.
Learn more »
Give kudos to tab author, rate the tab!
1 2 3 4 5
comments
print report bad tab
guest
You may want to rate the tab now too:
select rating
Wanna post a correction for this tab? Suggest correction