Oops, an error
Loading. Please wait.

Seven Stones tab

by Genesis
439 views 6 this week
no commentswrite comment
1 2 3 4 5
1 last vote to show rating
add to favorites
×
Save as Personal and add changes to this tab that will be seen only by you. Learn more ›
×
You can save this tab as Personal to edit and correct it or add notes. All changes will be seen only by you. Learn more »
launch autoscroll
font size
0
reset
how to read this tab
guitar tuner
edit
Autoscroll
slow
fast
+/-
esc
set tempo
stop
Author
Difficulty
About this tab version
Troubleclef's solo guitar arragement of Genesis' Seven Stones. This is an abridged version of the song, things that are missing on this arrangement are just a pastoral flute section in the middle and other repited verses. Was this info helpful? Yes No
Seven Stones (Excerpt). Genesis.
Arrangement for guitar by Tony R. Clef
Uploaded to Youtube on August 19, 2006.
https://www.youtube.com/watch?v=cm2F1j1-VxU


  [INTRO]
                                                    I heard the old man tell his tale:

E|--7--5--3--5--3--2-----2--0--2--3--2--3--------------------------------------------------|
B|--8--7--5--7--5--3--3--3--1--3--5--3--5--1--0--1-----------1--0--------8-----------------|
G|--------------------4-----2--------2-----0--0--0-----0--2--0-----0--0--7-----------------|
D|--------------------------2--------0-----2--0--2--0--4-----3-----2-----8-----------------|
A|--------------------------0--------------3-----------------------------6-----------------|
E|-----------------------------------------------------------------------------------------|


  [VERSE]
   Tinker, alone within a storm...
   CI-------------------------------------------¬

E|-----1-----------------------------------------------------------------------------------|
B|-----3-----3--4\3-----1--4-----4-----4-----3--1------------------------1--3--------------|
G|--------2-----3----3-----1-----1-----1-----1-----7------------------3--2-----------------|
D|--3-----3-----1----1-----3--3-----3-----3--------8--8-8--8--10\--3-----3-----------------|
A|--1-----------3----3-----------------------------6-------5-------1-----0-----------------|
E|-------------------------1---------------------------------------------------------------|


   CIII-----------------¬                                      CI--------------------------

E|-----6--5---3-----------------------------------------------------------------1h3--1-----|
B|--6------------3-----3---3--------3--------1--------1---------3/4----4-------------------|
G|--3------------3-----3---2-----2--2-----2--2--------2-----2---3------3--------3----3-----|
D|-------------------------3--3-----3--3-----3--3--3--3--3------1---1--------1--1----1-----|
A|----------5--------------1--------0---------------------------3---------3----------------|
E|--3---------------3------------------------3--------1------------------------------------|


   --------¬                                            CIII---¬

E|----------------------------------------------------------3------------------------------|
B|--4--1----------------------------------------6--6-----6---------------------------------|
G|--3-----3--5-----10-10--5------------------5-----5-----3----------REPEAT-----------------|
D|--1--------6--6--8------6--8---------8--6--------6-----5-------0-------------------------|
A|--3--------4------------4-----11---------------------------------------------------------|
E|-----------------9----------------9-----4-----------4--3-----3---------------------------|


                     CIII------¬                                   CIII-------¬

E|--3--5-----------------------------------------------------------------------------------|
B|-----------------------3-------------------------3----------3-----------3----------------|
G|-----------------------3--5--3--3--2----0--------5----------5-----------3--5--3--3--2----|
D|--5--4---0--2--4/7--------7--5--5--3----2--2-----5--5-----5----5-----------7--5--5--3----|
A|--5--5----------------------------------3-----3--6-----6----------6----------------------|
E|--------------------3-----------1----1-------------------------------3-----------1-----1-|


                                           Despair that tires the world brings the old man laughter...

   CIX-----¬                                  CI------------¬               CIV------------

E|--9--9--11--9--8--6--4--6--------------------------------------------------4-------------|
B|---------------------------4--2--1--------1--2-----1h2p1----------------6--4-----4-------|
G|------------------------------------------2--3-----3-----3--3--3--5--6-----5-----5-------|
D|------------------5--------------1--3--5-----3--3-----------4--------6-----6--6----------|
A|------------8--------------3--4--------------1--------------4--------4-----6-------------|
E|--9--11--------------4--6-----------------------------------2--------------4-------------|


                                                                   The old man's guide is chance

    ------------¬ CII----¬          CIV-------¬         CIV----¬            CI--¬

E|-----------------2--------5---5-----4---4-----5---5-----4---4----------------------------|
B|--5-----4h5p4h5--2--4--4--7---7-----5---5-----7---7-----5---5--------------1--3----------|
G|--6-----6--------2--2-----7---7-----6---6-----7---7-----6---6-----------4--2-------------|
D|--6--6--------------------0------0---------6--0------0------------6--7--5--3-------------|
A|--4-----------------4---------------4-------------------4--------------------------------|
E|-----------------2---------------------------------------------------5--3--1-------------|


                                                CII-----¬ CI------¬ CII------¬

E|--------------------------------------------------2-2-2-----1-1-1-----2-2-2--------------|
B|--4-----4--6--4-----4--6--4-----4--6--4-----4-----2-2-2-----2-2-2-----2-2-2-----6-6-6----|
G|--5-----5-----5-----5-----------------------------2-2-2-----1-1-1-----2-2-2-----6-6-6----|
D|--5-----5--6--5-----5--6--4-----4--6--4-----4-----------------------------------6-6-6----|
A|--3--3--------3--3--------2--2--------2--2-----------------------------------------------|
E|-----------------------------------------------2---------1---------2---------4-----------|


                                           [MELLOTRON PART]

   ¢II------¬ ¢I------¬ ¢II-----¬           CII--¬      CV

E|-----2-2-2-----1-1-1-----2-2-2-----4-4----5--4--2--4--5--9--12--7------------------------|
B|-----2-2-2-----2-2-2-----2-2-2-----6-6----2--2--3-----5-----9-------1----0h1p0-1--3------|
G|-----2-2-2-----1-1-1-----2-2-2-----6-6----2--2--2-----6-----9-------2----------2--2------|
D|--4---------3---------4---------6---------4--4--0-----7-------------2--2----------0------|
A|------------------------------------------4-----0-----0-------------0--------------------|
E|------------------------------------------2-----0-----------0----------------------------|


      CI---------¬             CI---------¬              CIV   CIV----------¬ CIX-------¬

E|-----1-----------0------------1-----------0-------------------7--7-----7-----9--11--12---|
B|--0--3-----3-----1------------3-----3-----1----1--------------4--4-----4-----9-----------|
G|-----3-----3-----2------------3-----3-----2----2-----0--6-----4--4-----4-----9-----------|
D|-----3--3-----3--2------2-----3--3-----3--2----2--3-----6--8--------6-----6--------------|
A|-----1-----------0---0-----0--1-----------0-------------4--------------------------------|
E|-----1------------------------1-------------------1-----4-----4--------------9-----------|


   CIV--------------------------------¬ CVI----¬                  CII-----------¬

E|--7--7-----7---6--4----------------------------------------------------------------------|
B|--4--4-----4---5-----7--5--4-----4-----------------5---5-----------4--4-------4----------|
G|--4--4-----4---6-----------4-----4-----6-----6-----6---6-------6---4--4-------4----------|
D|------------------------------6-----6--8-----8-----5-----------5---4--4-------4----------|
A|---------------4--------------------------6-----6--7-----7--7------2-----2---------------|
E|--4-----4------------------4-----------------------------------------------2-------------|


            CIV--¬

E|--2--2-----4--4---4-----------------7-------12-----7--7-------16----------14--12---------|
B|--6--6-----6--6---5---------10--10--10--10--10--10----10--10-----------------------------|
G|-----------4--4---6----6----11--11--10--10--9---9-----8---8---13--13--13-----------------|
D|--6-----6--------------6--------------------------------------13--13--12-----------------|
A|------------------0----0-----------------------------------------------------------------|
E|-----------------------------------------------------------------------------------------|


E|--19----------15--11-----------|
B|------------------12-----------|
G|------------------11-----------|
D|--17--17--17------9------------|
A|--17--17--16-------------------|
E|-------------------------------|


************************************

| h  hammer on
| p  pull off
| /  slide up
| ¢  half capo

************************************

            
            
Suggest correction
Creating personal tab
Creating personal tab
You can edit any tab online and save it as your Personal.

You can edit, replace or remove any tab part or add personal notes – all changes will be seen only by you.

Personal tabs can be accessed anytime from any device, even offline.
Learn more »
Give kudos to tab author, rate the tab!
1 2 3 4 5
comments
print report bad tab
guest
You may want to rate the tab now too:
select rating
Wanna post a correction for this tab? Suggest correction