Oops, an error
Loading. Please wait.

Little Green Bag intro tab

version 2
version 2

Intro

  • This tab focuses on an easy way to play this intro... Show more

Whole song

Interactive

130 views 6 this week
1 commentread comment
1 2 3 4 5
3 more votes to show rating
add to favorites
×
Save as Personal and add changes to this tab that will be seen only by you. Learn more ›
×
You can save this tab as Personal to edit and correct it or add notes. All changes will be seen only by you. Learn more »
launch autoscroll
font size
0
reset
how to read this tab
guitar tuner
backing track
0:00
0:00
edit
Autoscroll
slow
fast
+/-
esc
set tempo
stop
Author
Difficulty
About this tab version
This tab focuses on an easy way to play this intro, with minimal hand movement, and a repeatable melody. Other tabs of the same thing are often pitched much higher, and feature open notes. This tab only uses the bottom 3 strings and no open notes. Was this info helpful? Yes No
This is pitched up from the original recording, but my interpretation for standard guitar tuning.
Feel free to leave feedback or corrections.

[Intro]

e|---------------------------------------------------------------------------|
B|---------------------------------------------------------------------------|
G|---------------------------------------------------------------------------|
D|------------1----------------------------------------------------1---------|
A|--3---1--3-----3--1--3-3-1---------------------1-----------1--3-----3------|
E|----------------------------1--3------3--1--3-----3--1--3------------------|

e|---------------------------------------------------------------------------|
B|---------------------------------------------------------------------------|
G|---------------------------------------------------------------------------|
D|------------1--------------------------------------------------------------|
A|--1-33-1h3---3--1h3--------------------1----------1--2--3------------------|
E|----------------------1--2--3--33--1h3-----3--1h3--------------------------|



************************************

| h  Hammer-on

************************************

            
            
Suggest correction
Creating personal tab
Creating personal tab
You can edit any tab online and save it as your Personal.

You can edit, replace or remove any tab part or add personal notes – all changes will be seen only by you.

Personal tabs can be accessed anytime from any device, even offline.
Learn more »
Give kudos to tab author, rate the tab!
1 2 3 4 5
comments
print report bad tab
1 comment total.
0 reply
MaXiMuse 971 Aug 15, 2016 08:51 AM

didn't like this contribution

guest
You may want to rate the tab now too:
select rating
Wanna post a correction for this tab? Suggest correction