Oops, an error
Loading. Please wait.

Barcelona intro tab

version 2
version 2

Intro

Whole song

4,640 views 18 this week
1 commentread comment
1 2 3 4 5
x 5
add to favorites
×
Save as Personal and add changes to this tab that will be seen only by you. Learn more ›
×
You can save this tab as Personal to edit and correct it or add notes. All changes will be seen only by you. Learn more »
launch autoscroll
font size
0
reset
how to read this tab
guitar tuner
edit
Autoscroll
slow
fast
+/-
esc
set tempo
stop
-------------------------------------------------------------------------------
                             Barcelona - George Ezra
-------------------------------------------------------------------------------
Tabbed by: Julianbburbano
E-mail:

Tuning: Standard
Capo on 1st
Notes relative to capo

e|-2h4-------4/9p7--------------8---------2h4-------4/9p7-------7------------|
B|---------------------------------------------------------------------------|
G|---------------------------------------------------------------------------| 
D|---------------------------------------------------------------------------|
A|---------------------------------------------------------------------------|
E|-0---0---0---0---0---0---0---0---0---0---0---0---0---0---0---0-------------|

e|-0--------0---0h4--------------4-----0--------0----0h4-------------4-------|
B|--------0----------------------------------0-------------------------------|
G|---------------------------------------------------------------------------|
D|---------------------------------------------------------------------------|
A|---------------------------------------------------------------------------|
E|-5---5---5---5---5---5---5---5---5---5---5---5---5---5---5---5---5---5-----|

That's the song. Listen to the song for timing. The bass note keeps a steady beat just to clarify.  Sorry for any timing mistakes in my tab. Please give any improvements you can find. Thanks!


************************************

| /   slide up
| \   slide down
| h   hammer-on
| p   pull-off
| ~   vibrato
| +   harmonic
| x   Mute note
| b   Bend
| pb  Pre-bend
| br  Bend release
| pbr Pre-bend release
| brb Bend release bend

************************************

            
            
Suggest correction
Creating personal tab
Creating personal tab
You can edit any tab online and save it as your Personal.

You can edit, replace or remove any tab part or add personal notes – all changes will be seen only by you.

Personal tabs can be accessed anytime from any device, even offline.
Learn more »
comments
print report bad tab
1 comment total.
0 reply
oliviangee 10 Jan 31, 2016 04:28 PM

i feel like you added in the lowest note to be played more time than it should be but over all it's good

guest
You may want to rate the tab now too:
select rating
Wanna post a correction for this tab? Suggest correction