Oops, an error
Loading. Please wait.

Passacaglia tab

version 1
version 1

Whole song

Interactive

1,089 views 18 this week
no commentswrite comment
1 2 3 4 5
2 more votes to show rating
add to favorites
×
Save as Personal and add changes to this tab that will be seen only by you. Learn more ›
×
You can save this tab as Personal to edit and correct it or add notes. All changes will be seen only by you. Learn more »
launch autoscroll
font size
0
reset
how to read this tab
guitar tuner
edit
Autoscroll
slow
fast
+/-
esc
set tempo
stop
Passacaille (Passacaglia) - GF Handel
from Keyboard Suite Vol 1 No 7 in Gm HWV 432
(Suites de Pieces pour le Clavecin, Volume I)
Tabbed by Edward Graffley - edward_graffley@yahoo.com
Time: 4/4 (listen to a MIDI to get the rhythm)
Standard Tuning

e|-0-1-----1-1-0-1-|---3-1-3-0-0---0-|-----------------|---0---0-------|
B|-1-3-3-1-3-3-1-3-|-3-------1-1-3-1-|-1-1-0-1-3-3-1-3-|-3---3---1-0---|
G|-2---4-2-2-------|-4-4-2-4-0---4---|-2-2-1-2-4-4-2-4-|-1-0---0-2---2-|
D|-2-------0-------|---------2-------|-3-------0-------|-2---4---2-----|
A|-0-------0-------|-5-------3-------|-----------------|---------0---3-|
E|-----------------|-3---------------|-----------------|---------------|

e|-0-----0-1-----0-|---------0-------|-----------------|-----0----------|
B|-1-----1-3-----1-|-3-----3-1-----3-|-1-----1-3-----1-|-0-------1-0----|
G|-2-0-----2-------|-4-----4-0-----4-|-2-----2-4-----2-|-1-----------2--|
D|-----3-2-0-2-3-0-|-5-3-2-0---0-2---|-3-2-0-------0---|-2-0-----------2|
A|-----------------|---------3-----3-|-------3-1-3---2-|-----3-2-0---3--|
E|-----------------|-----------------|-----------------|----------------|

e|---0-5-3-1-0-----|-----3-1-0-------|-----1-0---------|-----0---------|
B|-1-----------3-1-|-0-3-------3-1-0-|---1-----3-1-0---|---0---3-1-0---|
G|-----------------|-----------------|-2-------------2-|-1-----------2-|
D|---------0-------|-----------------|-------------0---|-2-------------|
A|-0---3-----------|-----2---3-------|-----0---2-------|---------0---0-|
E|-------------1---|-3-----------0---|-1---------------|-----3---------|

e|-----------------|-------------0---|-1---5---7-------|-0---4---5---5-|
B|-----2---3-------|-----0---1-------|-------------3---|---------------|
G|-2---2-0---------|-0---0-----------|-----------------|-------------5-|
D|---------3-2-3---|---0---3-2-0-----|-----3-2-0-------|-----2-0-------|
A|-0-3---------5-3-|-2-----------3-2-|-0-3-------3-2-0-|---2-----3-2-0-|
E|-----------------|-----------------|-----------------|-4-------------|

e|---0-5-3-1-0-----|-----3-1-0-------|-----1-0---------|-----0-------------|
B|-1---0-1-----3-1-|-0-3-------3-1-0-|---1-----3-1-0---|---------1---0-----|
G|---2-------------|-----------------|-2---0---------2-|-1-------------2---|
D|---------0---2---|-------------0---|---------------0-|-2-------------0-2-|
A|-0---------------|-----0---3-------|---------2---3---|---------0-3-------|
E|-----------------|-3---------------|-1---------------|---0-2-3-----------|

e|---0-------0-1-3-5---0-1-|---------3-1-0-1-3-----0-|---------------0-1-------|
B|-1---3-1-3---3-----3-----|-0-1-3-------1-----1-3---|---0-1-------3-----0-1-3-|
G|-2-----------2-----------|-0-----0-----0-----------|-2-------0-2-2-----------|
D|-2-----------0-----------|-0-----------------------|-3-----3-----------0-----|
A|-0-----------------------|-------------3-----------|-3-----------2-----------|
E|-------------------------|-3-----------------------|-1-----------------------|

e|-------0-0-------0-------|-0-----------1-----------|-------------0-----------|
B|-----0-0---3-1-3---------|-1-----------3-----------|-3-----------1-----------|
G|-1-2---0-----2-----2-----|-2-----------2-----------|-0-------0---0---0-------|
D|-2-----------2-------0-2-|---2-0---0-2-------0-2-3-|-----0-----3-2-3-----0-2-|
A|-------------0-----3-----|-0-----3---------0-------|-2-3---------------3-----|
E|-------0-----------------|-------------1-3---------|-------3-----------------|

e|-1-----------------------|-------------------------|-5-3-1-0---------|
B|-------3-----3-----1-----|-------------1-----------|---------3-1-0---|
G|-2-----------1-----2-----|-2-----1-----2-----------|-5-------2-----2-|
D|-------0-2-3-------2-----|-0-----2-0-2---0-2-------|---------3-------|
A|-----0-------------0-2-3-|---3-2-------3-----0-2-3-|-0---------------|
E|-1-3---------0-2-4-------|-------------------------|---------1-------|

e|-3-1-0-----------|-1-0-------------|-----0---------0-|-5-310------53-10------|
B|-0-----3-1-0-----|-1---3-1-0-------|---0---3-1-0-----|-5----31-0--3----3-10--|
G|-0-------0---2-0-|-2---------2-1-2-|---------2---2---|-5--------2----------2-|
D|-----------------|-3-------3-------|-2-------2-------|------------3----------|
A|-----------------|---------5-------|---------0-------|-0---------------------|
E|-3-------0-------|-----------------|-0---------------|-----------------------|

e|-310--------310--------|-10---------10---------|-0-----------0-----------|
B|-0---310----1---310----|-1--310-----0--310-----|-0-310-------1-310-------|
G|-0-------20-0-------20-|-2------20---------212-|-1-----21----2-----21----|
D|-----------------------|-3--------3-0----------|-2--------42-2--------32-|
A|-----------------------|-----------------------|-------------0-----------|
E|-3----------0----------|-----------------------|-------------------------|

e|-0---------1-----------|-----------0----------|-1----------0-------|
B|-1---------3-----------|-0---------1-------01-|-0----------0---1---|
G|-2-------122-----------|-0--------00----02----|-0----------1---2---|
D|-----024---0---------0-|-0----023---023-------|-0--------0-2---2---|
A|-023-------------023---|--023------3----------|------023-------0-3-|
E|-------------024-------|-3--------------------|--013---------4-----|

e|-1---0---0-------|---8785838-8-8-878-|---757-7-7-7-7-7-7-|---535-505-5-5-5-5-|
B|-----0---1-------|----------6-5------|-0----8-6-5--------|------6---0--------|
G|-2---1---2-------|--------------7----|-0--------5-7-5----|-2--------7-5-0----|
D|-0---2-------0-2-|----------0--------|----------------7--|-3--------------7--|
A|---2-----0-3-----|-0-----------------|-------------------|-------------------|
E|-------0---------|-------------------|-------------------|-------------------|

e|---542-45-13-50---0-------|---0-0-0--0-0-0-0-|-------------------|
B|-0--------------3---13-01-|----2---2--2---2--|---303-303-2-2-2-2-|
G|--------------------------|-2----2--2---2----|-0----0---0-3-0-3--|
D|--------------------------|-2----------------|-------------------|
A|-------------0------------|-0----------------|-------------------|
E|-0------------------------|---------2--------|-1--------0--------|

e|-------------------|-------------------------|-0-8580858-858-858-|
B|---0-0-0-0-0-0-0-0-|---0-0-0-01--------------|----------4---4----|
G|----0---0---1---0--|----2---1---2-1----------|-------------------|
D|-4----4---2--------|-2----2--------4-2-0-----|----------4--------|
A|-6------------3----|-5--------0----------3-2-|-0-----------------|
E|-------------------|-------------------------|-------------------|

e|---7-7-7-7-7-7-7-7-|---5-5-5-5-404-505-|---5-5-4-45-0-0--------|
B|-1--8-6-8-2-8-7-8--|-0--7-0-7-0---0----|-0--6-0-3-6--3-1-3-0-1-|
G|-------------------|-------------------|-----------------------|
D|-2--------2--------|-1-----------------|-0----2----------------|
A|-------------------|----------4---3----|----------0------------|
E|-------------------|-------------------|-----------------------|

e|-0-------------1---------------|-----------------0---------------|
B|-1-------------3-----2-------3-|-3---------------1-----1-------1-|
G|-2-----2-----2-2---2-------2---|-0-----0-------0-0---0-------0---|
D|-----2-----2---0-3-----0-3-----|-----0-------0-----2-------2-----|
A|-0-3-----0---------------------|---2-------2-----3-------3-------|
E|-------------------------------|-3-------3-----------------------|

e|-1---------------0---0---|-1-------0---------|----0---0----1---1-|
B|-------3-------3-0---1---|-----3---1---------|---1---1----1---1--|
G|-2---2-------2---1---2---|-2---4---2-2-2-2---|--2---2----2---2---|
D|-0-3-----0-3-------------|-0---5------0-2--2-|-2---2----3---3----|
A|---------------------0-3-|---2-7---0------3--|-0--------0--------|
E|-----------------0-4-----|-------0-----------|-------------------|

e|----1---1----0---0-|----1---1---15--15-|---04--04---05--05-|----0---0---1---1|
B|---0---0----1---1--|---3---3--03--03---|-03--03----1---1---|---11--11--13--13|
G|--0---0----0---0---|--2---2------------|-------------------|--22--22--22--22-|
D|-0---0----2---2----|-3---3----0--------|----------3---3----|-22--22--33--33--|
A|-2--------3--------|-0-----------------|----------0--------|-0---0---0---0---|
E|-3-----------------|-1-----------------|-0-----------------|-----------------|

e|----1---1----0---0-|----1---1---15--15-|---05-----0-4-5-||
B|---00--00---11--11-|---11--11-03360336-|--115-0-3-----5-||
G|--00--00---00--00--|--22--22---5---5---|-22-----------5-||
D|-0---0----22--22---|-33--33---0---0----|----------------||
A|-22--22---3---3----|-------------------|-0------------0-||
E|-3---3-------------|-1---1-------------|------0---------||

            
            
Suggest correction
Creating personal tab
Creating personal tab
You can edit any tab online and save it as your Personal.

You can edit, replace or remove any tab part or add personal notes – all changes will be seen only by you.

Personal tabs can be accessed anytime from any device, even offline.
Learn more »
Give kudos to tab author, rate the tab!
1 2 3 4 5
comments
print report bad tab
guest
You may want to rate the tab now too:
select rating
Wanna post a correction for this tab? Suggest correction