Oops, an error
Loading. Please wait.
We have Chord Pro version of Here Comes The Sun.
It's the closest thing you can get to the original song and it has interactive parts. Check out the tab »
×
2,377 views 27 this week
no commentswrite comment
1 2 3 4 5
x 16
add to favorites
×
Save as Personal and add changes to this tab that will be seen only by you. Learn more ›
×
You can save this tab as Personal to edit and correct it or add notes. All changes will be seen only by you. Learn more »
launch autoscroll
font size
0
reset
transpose
0
reset
simplify chords
display chords
guitar tuner
edit
Autoscroll
slow
fast
+/-
esc
set tempo
stop
Strumming
There is no strumming pattern for this song yet. and get +5 IQ
this song is meant to be played with an accompaniment uke/guitar playing the chords 

[intro]
    G                        C              D7               G                       C           D7
A |--2----0--2-----2--0-----------0--------------------0------2-----0--2-----2--0-------2--0--------|
E |----3--------3--------3--0--3-----3--0--2--0--2--3-----------3--------3--------3--0--------3--2--|
C |-------------------------------------------------------------------------------------------------|
G |-------------------------------------------------------------------------------------------------|

   G                                   C               A7                G
A |--2--0--2------------2-----0--2------2--0--2---------------------------2--0--------|
E |-----------3------------3---------------------3------------------------------3-----|
C |-----------------------------------------------------------------------------------|
G |-----------------------------------------------------------------------------------|
   here comes the sun  (do do do do),   here comes the sun and i say,    its all right

    G           Am7               G        D7
A |----------0--------0--------0--------0---------------|
E |-------3--------3--------3--------3-----3--2--0------|
C |--2/4--------2--------0--------2-----------------2---|
G |-----------------------------------------------------|
 

[verse 1]
   G                        C              D7               G                       C                D7
A |--2----0--2-----2--0-----------0--------------------0----2-----0--2-----2--0-------2--0-------------|
E |----3--------3--------3--0--3-----3--0--2--0--2--3---------3--------3--------3--0--------3--2-------|
C |----------------------------------------------------------------------------------------------------|
G |----------------------------------------------------------------------------------------------------|
    little darling, its been a long and lonely winter      little darling, it feels like years since...

[Chorus]
    G                                   C               A7                G
A |--2--0--2------------2-----0--2------2--0--2---------------------------2--0--------|
E |-----------3------------3---------------------3------------------------------3-----|
C |-----------------------------------------------------------------------------------|
G |-----------------------------------------------------------------------------------|
   here comes the sun  (do do do do),   here comes the sun and i say,    its all right
  
  G           Am7               G        D7
A |----------0--------0--------0--------0----------------2-----0--2-----------------0---|
E |-------3--------3--------3--------3-----3--2--0----------3--------0--2--0--2--3------|
C |--2/4--------2--------0--------2-----------------2-----------------------------------|
G |-------------------------------------------------------------------------------------|

[verse 2]
   G                        C              D7               G                       C                D7
A |--2----0--2-----2--0-----------0--------------------0----2-----0--2-----2--0-------2--0-------------|
E |----3--------3--------3--0--3-----3--0--2--0--2--3---------3--------3--------3--0--------3--2-------|
C |----------------------------------------------------------------------------------------------------|
G |----------------------------------------------------------------------------------------------------|
    little darling, the smiles returning to the faces       little darling, it feels like years since...

[chorus]
    G                                   C               A7                G
A |--2--0--2------------2-----0--2------2--0--2---------------------------2--0--------|
E |-----------3------------3---------------------3------------------------------3-----|
C |-----------------------------------------------------------------------------------|
G |-----------------------------------------------------------------------------------|
   here comes the sun  (do do do do),   here comes the sun and i say,    its all right

  G           Am7               G        D7
A |----------0--------0--------0--------0--------------2-----0--2------------------------|
E |-------3--------3--------3--------3-----3--2--0--------3--------0--2--2---------------|
C |--2/4--------2--------0--------2-----------------2------------------------------------|
G |-------------------------------------------------------------------------0--2--3------|

  G           Am7               G        D7
A |------------------------------------2--|
E |--------1--------1--------0---------3--|
C |-----2--------0--------0--------0---2--|
G |--3--------2--------0--------0------0--|

[bridge]
  Bb    F    C             G  ...| D7 ...  
  sun, sun, sun, here it comes   (repeat 4 more times)
 
A |--------------------------------------|
E |--2----0--2--3----2--3--5----3--5--8--|
C |--0----0--0--0----0--0--0----0--0--8--|
G |--------------------------------------|

[verse 3]
   G                        C              D7               G                       C                D7
A |--2----0--2-----2--0-----------0--------------------0----2-----0--2-----2--0-------2--0-------------|
E |----3--------3--------3--0--3-----3--0--2--0--2--3---------3--------3--------3--0--------3--2-------|
C |----------------------------------------------------------------------------------------------------|
G |----------------------------------------------------------------------------------------------------|
    little darling, i feel that ice is slowly melting       little darling, it feels like years since...

[chorus]
  G                                   C               A7                G
A |--2--0--2------------2-----0--2------2--0--2---------------------------2--0--------|
E |-----------3------------3---------------------3------------------------------3-----|
C |-----------------------------------------------------------------------------------|
G |-----------------------------------------------------------------------------------|
   here comes the sun  (do do do do),   here comes the sun and i say,    its all right

    G           Am7               G        D7
A |----------0--------0--------0--------0---------------|
E |-------3--------3--------3--------3-----3--2--0------|
C |--2/4--------2--------0--------2-----------------2---|
G |-----------------------------------------------------|

[Outro]
     G                                   C               A7                G
A |--2--0--2------------2-----0--2------2--0--2---------------------------2--0--------|
E |-----------3------------3---------------------3------------------------------3-----|
C |-----------------------------------------------------------------------------------|
G |-----------------------------------------------------------------------------------|
   here comes the sun  (do do do do),   here comes the sun and i say,    

    G           Am7               G        D7
A |----------0--------0--------0--------0----------------2--0-------|
E |-------3--------3--------3--------3-----3--2--0-------------3----|
C |--2/4--------2--------0--------2-----------------2---------------|
G |-----------------------------------------------------------------|
                                                        its all right
 G           Am7               G        D7               
A |----------0--------0--------0--------0--------------------------------------------------2--|
E |-------3--------3--------3--------3-----3--2--0-------------1--------1--------0---------3--|
C |--2/4--------2--------0--------2-----------------2-------2--------0--------0--------0---2--|
G |------------------------------------------------------3--------2--------0--------0------0--|

            
            
Suggest correction
Creating personal tab
Creating personal tab
You can edit any tab online and save it as your Personal.

You can edit, replace or remove any tab part or add personal notes – all changes will be seen only by you.

Personal tabs can be accessed anytime from any device, even offline.
Learn more »
comments
print report bad tab
guest
You may want to rate the tab now too:
select rating
Wanna post a correction for this tab? Suggest correction