Oops, an error
Loading. Please wait.

Dont Tell Me Youre Not In Love chords

103 views 3 this week
no commentswrite comment
1 2 3 4 5
3 more votes to show rating
add to favorites
×
Save as Personal and add changes to this tab that will be seen only by you. Learn more ›
×
You can save this tab as Personal to edit and correct it or add notes. All changes will be seen only by you. Learn more »
launch autoscroll
font size
0
reset
transpose
0
reset
simplify chords
display chords
guitar tuner
edit
Autoscroll
slow
fast
+/-
esc
set tempo
stop
Strumming
There is no strumming pattern for this song yet. and get +5 IQ
Don't Tell Me You're Not In Love 
George Strait


INTRO  E  B  E  A F#m E A E

OR

INTRO

E----------------------------------------------------------|
B----------------------------------------------------------|
G------------4-4-4----4---4--------4-4-4---4---------------|
D------2---2-4-4-4-2--4-2-4-4/6--2-4-4-4-2-4-2-2s6-4-2-----|
A--2-4---4-----------2---------------------------------4-2-|
E----------------------------------------------------------|

E----------------------------------------------------------|
B----------------------------------------------------------|
G----4-4-4-4--4-4-4-------4-4-4-4--4-4-4-------------------|
D----4-4-4-2--4-2-4-4/6---4-4-4-2--4-2-4-4/6-4-2-----------|
A------------2----------2------------------------4-2-------|
E----------------------------------------------------------|

Verse 1

E
I know you're ready, you show all the signs,
Aadd9
Your eyes sparkle, oh how they shine.
Am                      B                       E     B  E 
But you keep saying you can't take another heartache.

E--------------------------------------|
B--------------------------------------|
G--------------------------------------|
D------2--2-4-4-4-2-4-2-4s6-4-2--------|
A--2-4--4-----------------------4-2----|
E--------------------------------------|

Verse 2
                            
The way you hold me, the way that you move,
Aadd9
Your feelings keep showing through.
Am                      B                     E     B
You can't hide it, it's written all over your face.

E--------------------|
B--------------------|
G--------------------|
D-----2-4/6-4-2------|
A--2-4---------4-2---|
E------------------0-|

Chorus 1

           E
Don't tell me you're not in love,
          Aadd9
When your heart beats like it does.
     B              B7                E
Your trembling body tells on you each time we touch.

You can tell me you're afraid,
     A
I am too and that's OK.
         B 
I've got eyes, I can see,               
      B7                   E            
Baby don't tell me, you're not in love. 

E----------------------------------------------------------|
B----------------------------------------------------------|
G------------4-4-4----4---4--------4-4-4---4---------------|
D------2---2-4-4-4-2--4-2-4-4/6--2-4-4-4-2-4-2-2s6-4-2-----|
A--2-4---4-----------2---------------------------------4-2-|
E----------------------------------------------------------|

Verse 3

E              
Sweet love songs bring you to tears,
Aadd9
Come on baby, don't hide in your fear,
Am                     B                  E      F#m  E
Let your lips say what your heart already knows.
       
Your denial is the last thing to fall,
Asus
The only brick left holding the wall.
Am               B                              E     B  B7
Don't hold back, speak with your heart and your soul.

E--------------------|
B--------------------|
G--------------------|
D-----2-4/6-4-2------|
A--2-4---------4-2---|
E------------------0-|

Chorus 2

           E
Don't tell me you're not in love,
          Aadd9
When your heart beats like it does.
     B              B7                E
Your trembling body tells on you each time we touch.

You can tell me you're afraid,
     A
I am too and that's OK.
         B 
I've got eyes, I can see,               
           B7              E            
Baby don't tell me, you're not in love.

E--------------------|
B--------------------|
G--------------------|
D-----2-4/6-4-2------|
A--2-4---------4-2---|
E------------------0-|
 
Outro

      B
I got eyes, I can see,
            B7             E            A  F#m  E  B  A  F#m A E  
Baby don't tell me, you're not in love.


flyinglibra51
God Bless Glen Travis Campbell

            
            
Suggest correction
Creating personal tab
Creating personal tab
You can edit any tab online and save it as your Personal.

You can edit, replace or remove any tab part or add personal notes – all changes will be seen only by you.

Personal tabs can be accessed anytime from any device, even offline.
Learn more »
Give kudos to tab author, rate the tab!
1 2 3 4 5
comments
print report bad tab
guest
You may want to rate the tab now too:
select rating
Wanna post a correction for this tab? Suggest correction