Oops, an error
Loading. Please wait.

Dont Try bass

799 views 3 this week
no commentswrite comment
1 2 3 4 5
2 more votes to show rating
add to favorites
×
Save as Personal and add changes to this tab that will be seen only by you. Learn more ›
×
You can save this tab as Personal to edit and correct it or add notes. All changes will be seen only by you. Learn more »
launch autoscroll
font size
0
reset
guitar tuner
edit
Autoscroll
slow
fast
+/-
esc
set tempo
stop
Tabbed by: Julia Nargis
Email: bydesign68@gmail.com

*Note* If you would like to play this in standard tuning, just play all the notes on the E string two frets
down (7 would be a 5, 2 would be a 0, etc.).
*Note* The lines that say optional are not in the song, but it's fun to add them in there if you want.

Tuning: Drop D


[Optional  Intro 0:00-0:11]

Those are 13's

G|-99999999--8888--13131313--99999999--8888--1313-------------------------------|
D|------------------------------------------------------------------------------|
A|------------------------------------------------------------------------------|
D|------------------------------------------------------------------------------|



[Intro]

G|------------------------------------------------------------------------------|
D|------------------------------------------------------------------------------|
A|---------------------44444444--33333333--44444444------------2222222222222222-| x2
D|-22222222--77777777--------------------------------77777777-------------------|



[Verse 1]

G|------------------------------------------------------------------------------|
D|------------------------------------------------------------------------------|
A|--44444444--77777777------------22222222------------44444444------------------|
D|----------------------77777777------------66666666----------------------------|

Only play the 7's seven times instead of eight:

G|------------------------------------------------------------------------------|
D|------------------------------------------------------------------------------|
A|------------------------------------------------------------------------------|
D|--7777777--2h3-2h3-2h3-2h3-2--------------------------------------------------|

G|------------------------------------------------------------------------------|
D|------------------------------------------------------------------------------|
A|--44444444--77777777------------22222222------------44444444------------------|
D|----------------------77777777------------66666666----------------------------|

G|------------------------------------------------------------------------------|
D|------------------------------------------------------------------------------|
A|------------22222222----------------------------------------------------------|
D|--77777777--------------------------------------------------------------------|



[Chorus]

G|------------------------------------------------------------------------------|
D|------------------------------------------------------------------------------|
A|---------------------44444444--33333333--44444444------------2222222222222222-| x2
D|-22222222--77777777--------------------------------77777777-------------------|



[Verse 2]

G|------------------------------------------------------------------------------|
D|------------------------------------------------------------------------------|
A|--44444444--77777777------------22222222------------44444444------------------|
D|----------------------77777777------------66666666----------------------------|

G|------------------------------------------------------------------------------|
D|------------------------------------------------------------------------------|
A|------------------------------------------------------------------------------|
D|--7777777--2h3-2h3-2h3-2h3-2--------------------------------------------------|

G|------------------------------------------------------------------------------|
D|------------------------------------------------------------------------------|
A|--44444444--77777777------------22222222------------44444444------------------|
D|----------------------77777777------------66666666----------------------------|

G|------------------------------------------------------------------------------|
D|------------------------------------------------------------------------------|
A|------------22222222----------------------------------------------------------|
D|--77777777--------------------------------------------------------------------|



[Chorus]

G|------------------------------------------------------------------------------|
D|------------------------------------------------------------------------------|
A|---------------------44444444--33333333--44444444------------2222222222222222-| x2
D|-22222222--77777777--------------------------------77777777-------------------|



[Bridge]

G|------------------------------------------------------------------------------|
D|------------------------------------------------------------------------------|
A|--444--777--------------------------------------------------------------------| x3
D|------------7-7777777---------------------------------------------------------|

G|------------------------------------------------------------------------------|
D|------------------------------------------------------------------------------|
A|--2222222222222222--4444444444444444--7777777777777777--22222222--33333333----|
D|------------------------------------------------------------------------------|


[Optional 3:44-3:52]

G|-99999999--8888--13131313--99999999--8888--1313-------------------------------|
D|------------------------------------------------------------------------------|
A|------------------------------------------------------------------------------|
D|------------------------------------------------------------------------------|



[Chorus]

G|------------------------------------------------------------------------------|
D|------------------------------------------------------------------------------|
A|---------------------44444444--33333333--44444444------------2222222222222222-| x2
D|-22222222--77777777--------------------------------77777777-------------------|



[Outro]

G|------------------------------------------------------------------------------|
D|------------------------------------------------------------------------------|
A|------------------------------------------------------------------------------|
D|--2~--------------------------------------------------------------------------|


************************************

| h  Hammer-on
| ~  Vibrato

************************************

            
            
Suggest correction
Creating personal tab
Creating personal tab
You can edit any tab online and save it as your Personal.

You can edit, replace or remove any tab part or add personal notes – all changes will be seen only by you.

Personal tabs can be accessed anytime from any device, even offline.
Learn more »
Give kudos to tab author, rate the tab!
1 2 3 4 5
comments
print report bad tab
guest
You may want to rate the tab now too:
select rating
Wanna post a correction for this tab? Suggest correction