Oops, an error
Loading. Please wait.

Algun Recuerdo tab

5 views 1 this week
no commentswrite comment
1 2 3 4 5
3 more votes to show rating
add to favorites
×
Save as Personal and add changes to this tab that will be seen only by you. Learn more ›
×
You can save this tab as Personal to edit and correct it or add notes. All changes will be seen only by you. Learn more »
launch autoscroll
font size
0
reset
how to read this tab
guitar tuner
edit
Autoscroll
slow
fast
+/-
esc
set tempo
stop
Esta es una excelente canción ojala la aprecien igual que yo
Con esta canción e enamorado mas al amor de mi vida
ojala ustedes también la puedan dedicar. Les mando un saludo
y disfruten de la música del romanticismo que nos hace unirnos
a nosotros mismos.
Esta canción es de su nuevo disco un trovador fresco
con una propuesta Sensible,
en este nuevo disco canta con Alejandro filio
una canción llamada caminante muy buena.

Solo siéntanla
Intro?
Capo 5to traste

     G4           C9      D9/F#  G
E ---3----------------------2-------3---------|
A -----------------3--3-----------------------|
D ----0----------------2------0---------------|
G -----0-------0--------0------2--------------|
B ------1-----1----3-----3--3---3---0---------|
e -------3-3h0------0-------------------------|

     G4           C9      D9/F#  G
E ---3----------------------2-------3---------|
A -----------------3--3-----------------------|
D ----0----------------2------0---------------|
G -----0-------0--------0------2--------------|
B ------1-----1----3-----3--3---3---0---------|
e -------3-3h0------0-------------------------|


    Em9                        D9/F#  G
E ---0--------------------------2-----3------|
A ----2-----2---2-----2---2------------------|
D -------------------------2-----0-----------|
G ----0--0--0---0--0--0-----0-----2----------|
B ----3h0---3---3h0---3------3--3--3--0------|
e -------------------------------------------|


       654321
G      320001
G4     320013
C9     X32030
C/B    x20030
Em*    022030
Am     X02210
Am/G   302210
Am7    x02010
Am7/B  x20010
D9/F#  200230
D7/F#  200210
D4/F#  200233
Bm*    x24030
Bm*/F# 2x4030


G
Guarda siempre algún recuerdo
C9                    G G*
Por si ya no vuelvo a verte
Em*                 C9
Cuando me levante sobre la rutina
Am                  Am/G          D9/F#
Con la luz temprana, sin zapatos sin sombrilla
G              Am7
Voy a caminar despacio
Bm*           Bm*/F#       Am
Hoy mirándote juro que me escapo
                  Am/G          D9/F#
Del apremio de morir por mal vivir

Am                Am/G           D9/F#
Si te recuerdo sale el sol y me curo
G                   G4*           Am7
Se me evapora el dolor, pero a tanta mañana
                   G   Em7 D9/F#
Le hace falta tus ojos

G            D4/F#
Veo que una lagrimas de menos
Am              Am/G         D9/F#          D7/F#  G G4* G
Te diran que soy el mismo, para luego es lo demás
G                      D4/F#
Y si un dia me canso de alumbrarte con las manos
Bm*          Bm*/F#     Am          Am/G
Pídeme que me las corte yo asi no las necesito
Am           Am/G      D9/F#
Me robaron el camino los que dicen son buenos
Am            Am/G
Me corrieron de este sitio
D9/F#                  D7/F# D9/F# D7/F# D9/F#  Rasgueado
los que dicen que son dueños

G       G*           Am7                    Bm*
Y ya ves, debes en cuando el tiempo paga y ves
Am7                            (Am7 Am7/B  C)
Que hay quien opina que han matado el sueño
          Asus              (C/B C)
Que hay quien supone que han muerto el sueño
                   Bm*
Que Hay quien pensaba
Em7        D9/G    G Em7 D9/F#
que vendí mi sueño


 G                      Am7                         G     G*
cuando pienso entre las cosas que recuerda que hay un cielo
G                   Am7
yo no se si este tan lejos solo espero que estés
G         G*  G                    G* G
tu también    solo espero que estés tu también

G
guarda siempre algún recuerdo
C9                    G G* G
por si ya no vuelvo a verte


   G*     G
E --3-----3--------|
A -----------------|
D --0h2-2----------|
G -----------------|
B -----1--0--------|
e -----------------|

Hasta la siguiente vez?

            
            
Suggest correction
Creating personal tab
Creating personal tab
You can edit any tab online and save it as your Personal.

You can edit, replace or remove any tab part or add personal notes – all changes will be seen only by you.

Personal tabs can be accessed anytime from any device, even offline.
Learn more »
Give kudos to tab author, rate the tab!
1 2 3 4 5
comments
print report bad tab
guest
Wanna post a correction for this tab? Suggest correction