Oops, an error
Loading. Please wait.

Im The One bass

192 views 3 this week
no commentswrite comment
1 2 3 4 5
2 more votes to show rating
add to favorites
×
Save as Personal and add changes to this tab that will be seen only by you. Learn more ›
×
You can save this tab as Personal to edit and correct it or add notes. All changes will be seen only by you. Learn more »
launch autoscroll
font size
0
reset
guitar tuner
edit
Autoscroll
slow
fast
+/-
esc
set tempo
stop
Author
Difficulty
Im The One
Song written by Gerry Marsden, recorded by him and his band
The Pacemakers, released in Jan 1964 reaching number 2 in UK.
Original bassist Les Chadwick.  Tab by bass50611.
Straight forward, bit quick in places, not exactly as original
In the bridge but very close. Any comments its bass254@btinternet.com
(26th Feb, made ammendments to bridge to make it easier)

Intro:                  .
G|--- --------|-----------|
D|-- NO BASS--|-------7-9-|
A|-FIRST RIFF-|--7-10-----|
E|---- -------|-----------|

Verse:
G|-------------------------------------------------------------------|
D|---9-10-11----------------9-10-11----------------6-9----6-9----6-9-|
A|-7---------11-9-------6-7---------11-9-------6-7------7-------7----|
E|----------------9-7-9------------------9-7-9-----------------------|
                              .
G|----------------------------------------------|
D|---6-9--------------------------------7-9-7-9-|
A|-7--------4-7----4-7----4-7------7-10---------|
E|--------5------5------5-----5-----------------|

Repeat Verse:

Bridge: (PLAY THIS A BIT QUICK)
G|-------------------------------------------------------------|
D|----------------------8-------------4-7-4--------------------|
A|--4-7-4---6-9-6---8-11--11-8-----4-7-----7-4---6-9-6---6-9-6-|
E|-5-------7-------9----------9-7-5-------------7-------7------|

G|-----------------------------------------------------------------|
D|------8-------------4--------------------------------------------|
A|--8-11--11-8-----4-7--7-4--------1-4-1----1-2-1---6-9-6--------6-|
E|-9----------9-7-5---------5-4---2-------2--------7--------77-9---|

Repeat Verse:

Repeat Bridge:

Repeat Verse:

Outro:             .
G|-------------------|
D|------7-9-7--------|
A|-7-10-------10---7-|
E|-------------------|

            
            
Suggest correction
Creating personal tab
Creating personal tab
You can edit any tab online and save it as your Personal.

You can edit, replace or remove any tab part or add personal notes – all changes will be seen only by you.

Personal tabs can be accessed anytime from any device, even offline.
Learn more »
Give kudos to tab author, rate the tab!
1 2 3 4 5
comments
print report bad tab
guest
You may want to rate the tab now too:
select rating
Wanna post a correction for this tab? Suggest correction