Oops, an error
Loading. Please wait.

Chronicles Of A Bohemian Teenager tab

version 1
version 1

Whole song

2,487 views 1 this week
2 commentsread comments
1 2 3 4 5
x 3
add to favorites
×
Save as Personal and add changes to this tab that will be seen only by you. Learn more ›
×
You can save this tab as Personal to edit and correct it or add notes. All changes will be seen only by you. Learn more »
launch autoscroll
font size
0
reset
how to read this tab
guitar tuner
edit
Autoscroll
slow
fast
+/-
esc
set tempo
stop
-------------------------
Get Cape. Wear Cape. Fly
-------------------------

i havent figured out the intro yet, so if anyone has please post!

Capo on 4th:
relative to capo
listen to song to figure out strumming pattern

e|--7----x---|
B|--0----7---|
G|--0----0---|
D|--5----5---| x2 then
A|--7----7---|
E|--0----0---|

e|--3----0---|
B|--0----3---|
G|--0----0---|
D|--2----2---| x2
A|--3----3---|
E|--0----0---|

repeat how ever many times


Then the prechorus bit goes like this, im pretty sure. 
slide up into each chord

e|--3----5---|
B|--0----0---|
G|--0----0---| x3 then
D|--2----4---|
A|--3----5---|
E|--0----0---|

e|--5---7----|
B|--0---0----|
G|--0---0----|
D|--4---5----|
A|--5---7----|
E|--0---0----|

Then the chorus goes like this

e|--3---3---7---3--|
B|--0---0---0---0--|
G|--0---0---0---0--|
D|--0---2---5---2--|
A|--2---0---7---3--|
E|--3---0---0---0--|

Ignore my comment, this tab has been updated

please rate

            
            
Suggest correction
Creating personal tab
Creating personal tab
You can edit any tab online and save it as your Personal.

You can edit, replace or remove any tab part or add personal notes – all changes will be seen only by you.

Personal tabs can be accessed anytime from any device, even offline.
Learn more »
Give kudos to tab author, rate the tab!
1 2 3 4 5
comments
print report bad tab
2 comments total.
0 reply
CrazyYaz 725 Sep 05, 2006 02:52 AM

A few corrections!
instead of playing 07x007 play 075007

And chorus is played like this:

e|--3---3---7---3---|
B|--0---0---0---0---|
G|--0---0---0---0---|
D|--0---2---5---2---|
A|--2---0---7---3---|
E|--3---0---0---0---|

0 reply
G0rilla89 10 Sep 05, 2006 02:57 AM

ohh right lols, i was about to say that the chorus wasn't right :]
great tab! i love this song! if only someone tabbed the intro

guest
You may want to rate the tab now too:
select rating
Wanna post a correction for this tab? Suggest correction