Oops, an error
Loading. Please wait.

Dance tab

version 2
version 2

Whole song

Interactive

5,444 views 1 this week
5 commentsread comments
1 2 3 4 5
x 3
add to favorites
×
Save as Personal and add changes to this tab that will be seen only by you. Learn more ›
×
You can save this tab as Personal to edit and correct it or add notes. All changes will be seen only by you. Learn more »
launch autoscroll
font size
0
reset
how to read this tab
guitar tuner
edit
Autoscroll
slow
fast
+/-
esc
set tempo
stop
Author
Difficulty
Get Cape. Wear Cape. Fly

D.A.N.C.E (originally by Justice)

I hope this submits properly this time! I'm not a fantastic guitarist so this won't be 
but I'm sure it'll do.

|--------------------------------------------------------|
|--------------------------------------------------------|
|--------------------------------------------------------|
|--0---0-3-------------2h3--2------------3-----3---------|
|----------5p3----3h5---------5-3-2----2---2-1---1--0--0-|
|--------------------------------------------------------|

Repeat til end

            
            
Suggest correction
Creating personal tab
Creating personal tab
You can edit any tab online and save it as your Personal.

You can edit, replace or remove any tab part or add personal notes – all changes will be seen only by you.

Personal tabs can be accessed anytime from any device, even offline.
Learn more »
Give kudos to tab author, rate the tab!
1 2 3 4 5
comments
print report bad tab
5 comments total. Showing first comments.
0 reply
emptyrhap 10 Jul 20, 2008 04:31 AM

sorry but its not correct,
its:

D-0---0-3----------0h3------0-3-----3------
A---------0-3--0h3-----0-3------0-1---1-0-0

0 reply
Chrizto 10 Aug 20, 2008 10:14 AM

D-0---0-3----------0h3------0-3-----3------
A---------0-3--0h3-----0-2------0-1---1-0-0
^
Imo sound way better, listen to the track

0 reply
RoMbi 10 Feb 22, 2009 03:02 AM

D -0---0-3----------0h3--------3-----3------
A ---------0-3--0h3-----0-2--2---0-1---1-0-0

i think now it's correct :)

guest
You may want to rate the tab now too:
select rating
Wanna post a correction for this tab? Suggest correction