Oops, an error
Loading. Please wait.

Butch Cassidy And The Sundance Kids tab

675 views 1 this week
2 commentsread comments
1 2 3 4 5
3 more votes to show rating
add to favorites
×
Save as Personal and add changes to this tab that will be seen only by you. Learn more ›
×
You can save this tab as Personal to edit and correct it or add notes. All changes will be seen only by you. Learn more »
launch autoscroll
font size
0
reset
how to read this tab
guitar tuner
edit
Autoscroll
slow
fast
+/-
esc
set tempo
stop
Author
-------------------------------------------------------------------------------
            "Butch Cassidy And The Sundance Kids" - Get Your Guns
                               from the album
                        The Legend of Ronnie Thunder
-------------------------------------------------------------------------------

Tabbed by Billy
email - hyperlitexr100@yahoo.com

If your looking at this tab, your probably one of the VERY few people I know that know 
Get Your Guns is. If your not, I highly suggest you check them out. They're like Maylene 
the Sons of Disaster, but a lot more technical.

Tuned in Drop C#
(or whatever it is to make it low-high C#-G#-C#-F#-Bb-D#)

*   =   pinch harmonic
(#) =   artificial harmonic

After the drum intro
pick all fretted notes, pull off to the open strings
This is the hardest part of the song, but only cause its kinda fast.
-------------------------------------------------------------------|
--8-0-3-0-------------------------8-0-3-0--------------------------|
----------3-0-7-0-3-0---------------------3-0-7-0-3-0--------------|
----------------------2-0-----2-0---------------------2-0-----2-0--|
--------------------------2-0-----------------------------2-0------|
-------------------------------------------------------------------|

Edit: This is how the intro is probably played, although the above version can sound a bit cleaner

--3-0------------------------------| 
------3-0-----3-0------------------| 
----------2-0-----2-0--------------| 
----------------------2-0-----2-0--| 
--------------------------2-0------| 
-----------------------------------| 
bend the 2 a little on the g-string.

When the second guitar comes in (this should be lined up with above)
-------------------------------------------------------------------|
--3--------------------------------3-------------------------------|
--2--------------------------------0-------------------------------|
--0--------------------------------2---------------5---------------|
--0--------------------------------3---------------5---------------|
---------------------------------------------------5---------------|

Then both guitars start playing the opening lick, then when the singer comes in, they 
parts again, then you got the breakdown. If you can listen to it, you can figure out the 
cause I'm not gonna waste all the space for it.
-------------------------------------------------------------------|
-------------------------------------------------------------------|
-------------------------------------------8-8-8-------------------|
-----------------------------8*------------8-8-8-------------------|
-------------------------------------------------------------------|
-0000-00--00--0000-00-00--00----0000000...-------------------------|
                            bend the 8
hopefully you get the gist of it.

Then you got the bass solo
-------------------------------------------------------------------|
-------------------------------------------------------------------|
-(7)------(5)------------(7)---------------------------------------|
-(7)------(5)--------(7)-(7)---------------------------------------|
-------------------------------------------------------------------|
-------------------------------------------------------------------|
One guitar plays this, then the other guitar comes in with
-------------------------------------------------------------------|
----------(7)------------------------------------------------------|
----------(7)------------------------------------------------------|
----------(7)------------(5)---------------------------------------|
-------------------------(5)---------------------------------------|
-------------------------------------------------------------------|
For the nat. harmonics on 5th fret, he whammys em down and back up

Then you got this part
--------------------------|-----------------------------------------|
--------------------------|-----------------------------------------|
-------------------------.|-----------------------------------------|
-------------------------.|-----------------------------------------|
----/5---3----------------|-----/5---3------------------------------|
-------------6---3---5--0-|--------------6---3---5*-----------------|
repeat 3 times                        bend up on the 5

This is how they end it
--------------------------------------------------------------------|
--------------------------------------------------------------------|
---------------------------------5--5--5--7--7----------------------|
---------------------------------5--5--5--7--7----------------------|
-0-------------------3-----------3--3--3--5--5----------------------|
-0-------------------3-----------------------0----------------------|

So thats the song. Got any questions, email me.
happy pickin

http://www.myspace.com/getyourgunsmetal

            
            
Suggest correction
Creating personal tab
Creating personal tab
You can edit any tab online and save it as your Personal.

You can edit, replace or remove any tab part or add personal notes – all changes will be seen only by you.

Personal tabs can be accessed anytime from any device, even offline.
Learn more »
Give kudos to tab author, rate the tab!
1 2 3 4 5
comments
print report bad tab
2 comments total.
0 reply
GNRSkynyrd 199 Mar 31, 2008 11:41 AM

my bad. insted of this
-------------------------------------------------------------------|
--8-0-3-0-------------------------8-0-3-0--------------------------|
----------3-0-7-0-3-0---------------------3-0-7-0-3-0--------------|
----------------------2-0-----2-0---------------------2-0-----2-0--|
--------------------------2-0-----------------------------2-0------|
-------------------------------------------------------------------|

play this
--3-0------------------------------|
------3-0-----3-0------------------|
----------2-0-----2-0--------------|
----------------------2-0-----2-0--|
--------------------------2-0------|
-----------------------------------|
bend the 2 a little on the g-string.

0 reply
fallenzerofrk77 10 Apr 11, 2009 01:37 PM

you need to get party your body

guest
You may want to rate the tab now too:
select rating
Wanna post a correction for this tab? Suggest correction