Oops, an error
Loading. Please wait.

My Minds Playing Tricks On Me tab

2,482 views 72 this week
2 commentsread comments
1 2 3 4 5
x 8
add to favorites
×
Save as Personal and add changes to this tab that will be seen only by you. Learn more ›
×
You can save this tab as Personal to edit and correct it or add notes. All changes will be seen only by you. Learn more »
launch autoscroll
font size
0
reset
how to read this tab
guitar tuner
edit
Autoscroll
slow
fast
+/-
esc
set tempo
stop
Author
The guitar sounds like it's all in the 3rd position of the G minor pentatonic scale.

The scale is

e--------------------------10-12-|
b---------------------10-13------|
g-----------------9-12-----------|
d------------10-12---------------|
a-------10-12--------------------|
e--10-12-------------------------|

The chorus is

e--------------------------------------------------------|
b--------------------10----------------------------------|
g--9--12-12-12--9--12---12-------------------------------|
d------------------------------12--10-10-10----12--10----|
a-------------------------------------------12--------12-|
e--------------------------------------------------------|

The verse sounds like it has two guitars, but the main part goes

e------------------------|
b------------------------|
g--------9---------------|
d-----10-----------10-12-|
a--12-----------12-------|
e------------------------|

I'm not sure on the intro/outro.

--Strat6

            
            
Suggest correction
Creating personal tab
Creating personal tab
You can edit any tab online and save it as your Personal.

You can edit, replace or remove any tab part or add personal notes – all changes will be seen only by you.

Personal tabs can be accessed anytime from any device, even offline.
Learn more »
comments
print report bad tab
2 comments total.
0 reply
exxxp0t 10 May 22, 2017 08:08 AM

Good work :)

0 reply
duepayer 10 Sep 11, 2017 02:51 PM

Great tab man! Always on the hunt for hip hop classics. Preciate your effort strat!

guest
You may want to rate the tab now too:
select rating
Wanna post a correction for this tab? Suggest correction